» » »

Underwater Tabs (ver.3)

Artists:  A B C D E F G H I J K L M N O P Q R S T U V W X Y Z # 

Underwater Tabs (ver.3)

Vertical Horizon
Rating:
5/5 (1 vote)

Tabs too difficult? Try these video lessons and learn fast.
                # represents their interpretation of the song.                            #


---------------------------------------------------------------------------
     Underwater (full song, condensed, version 2) - Vertical Horizon
---------------------------------------------------------------------------

Tuning: EADGBd (Capo on 1, dropped d)

Note: Fingering is relative to capo

There are 2 main phrases that are played throughout the song:

Phrase A:

d  |---2---2---2---2---3---3---3---3---5---5---5---5---5---5---5---5-------|
B  |-3---3---3---3---3---3---3---3-----------------------------------------|
G  |---------------------------------5---7---5---7---5---7---5---7---------|
D  |-----------------------------------------------------------------------|
A  |-----------------------------------------------------------------------|
E  |-----------------------------------------------------------------------|

Phrase B:

d  |-----0-------0-------0-------0-------0-------0-------0-------0---------|
B  |---3---3---3---3---3---3---3---3---3---3---3---3---5---5---5---5-------|
G  |-3-------3-------3-------3-------0-------0-------5-------5-------------|
D  |-----------------------------------------------------------------------|
A  |-----------------------------------------------------------------------|
E  |-----------------------------------------------------------------------|

And a third brief phrase towards the end:

Phrase C:

d  |---2---2---2---2---3---3---3---3---------------------------------------|
B  |-3---3---3---3---3---3---3---3-----------------------------------------|
G  |-----------------------------------------------------------------------|
D  |-----------------------------------------------------------------------|
A  |-----------------------------------------------------------------------|
E  |-----------------------------------------------------------------------|

Phrase A 5x
Phrase B 1x

Phrase A 6x
Phrase B 1x

Phrase A 2x
Phrase B 1x

Phrase A 4x
Phrase B 1x

Phrase C 1x

Phrase B 1x
Phrase A 8x

Outro:

d  |-2---2---2---2---2---2---2---2---2---2---2---2---2---2-----------------|
B  |---3---3---3---3---3---3---3---3---3---3---3---3---3---3---------------|
G  |-----------------------------------------------------------------------|
D  |-----------------------------------------------------------------------|
A  |-----------------------------------------------------------------------|
E  |-----------------------------------------------------------------------|

d  |-2---2---2---2---2---2---2---2---2---2----2----------------------------|
B  |---3---3---3---3---3---3---3---3---3---3--3----------------------------|
G  |-----------------------------------------------------------------------|
D  |-----------------------------------------------------------------------|
A  |-----------------------------------------------------------------------|
E  |-----------------------------------------------------------------------|


Lyrics:

    You and I are here underwater
    Seconds are so dear underwater
    I'm searching for a light to draw me closer
    I hold my breath in tight bring me closer I feel your touch
    Will you pull me up again?

    Oooooh Oooooh (2x)

    It's not so bad down here underwater
    Once you get past the fear underwater
    I sense you through the haze just like a memory
    I've been down here for days have you seen me I feel your touch
    Will you pull me up again?

    Oooooh Oooooh (2x)

    It's all the same to me underwater
    There's nothing much to see underwater
    I cannot make a sound but I can listen
    I can't tell up from down and now I miss them I feel your touch
    Will you pull me up again?

    Oooooh You're just in sight
    Will you save my life again?

    Oooooh Oooooh (8x)

    You and I are here
    Underwater
            
Tabs too difficult? Try these video lessons and learn fast.


comments powered by Disqus
↑ Back to top | Tablatures and chords are parodies/interpretations of the original songs. You may use it for private study, scholarship, research or language learning purposes only