>
 >
Shackled 2

Shackled 2 Guitar Tabs

Vertical Horizon - Shackled 2 chords, tabs, tablatures, lyrics

Guitar lessons | Add/correct | Request | Top 50 tabs Artists:  A B C D E F G H I J K L M N O P Q R S T U V W X Y Z 0-9

Shackled 2 Guitar Tabs – Vertical Horizon

CD, Sheet music, Poster

Do you like Shackled 2? Share with your friends now
ChordsTabsTabs v2Tabs v3Tabs v4Ukulele


TUNING: DROP D AND DOWN TUNED A HALF STEP
Db, Ab, Db, Gb, Bb, Eb.

HAMMER ON  =  h
PULL OFF   =  p
SLIDE UP   =  /
SLIDE DOWN =  \
MUTE       =  X
HARMONICS  = < >
VIBRATE    =  ~



RIFF A

Eb-|-----------------<7>-|---------------------------------|-
Bb-|------5-x-x-5/7--<7>-|---------------------------------|-
Gb-|------5-x-x-5/7------|---------------------------------|-
Db-|--0---5-x-x-5/7------|--0-0-3-3-3-3-2-2-2-2---2p0---0--|-
Ab-|--0------------------|--0-0-3-3-3-3-3-3-3-3-------3----|-
Db-|--0------------------|--0-0-3-3-3-3-3-3-3-3------------|-



RIFF B

Eb-|--0--x---0--0--0-0--|-----------------------|-
Bb-|--1--x---1--1--1-1--|-------------1/3--3-3--|-
Gb-|--4--x---4--4--4-4--|-------------0/0--0-0--|-
Db-|--2--x---2--2--2-2--|--5--5-5-5---2/4--4-4--|-
Ab-|--0--x---0--0--0-0--|--5--5-5-5---3/5--5-5--|-
Db-|--------------------|--5--5-5-5-------------|-



RIFF C

Eb-|-----------------|-------------------|------------------|-----------------------|-
Bb-|-----------------|-------------------|------------------|-----------------------|-
Gb-|-----------------|-------------------|------------------|-----------------------|-
Db-|--5-x--5--5-5-5--|--5-x--5--5/7\5----|--5--5--5--5-5-5--|--5-5-5-5-55-5--555-5--|-
Ab-|--3-x--3--3-3-3--|--3-x--3-----------|--3--3--3--3-3-3--|--5-5-5-5-55-5--555-5--|-
Db-|--3-x--3--3-3-3--|--3-x--3--------0--|--3--3--3--3-3-3--|--5-5-5-5-55-5--555-5--|-



RIFF D            PLAY SECOND TIME AROUND
                 /
Eb-|--0---0---0(0)--|-------------|-
Bb-|--3---3---3(3)--|-------------|-
Gb-|--0---0---0(0)--|-------------|-
Db-|--4---4---4(4)--|--2---2---2--|- USE DISTORTION
Ab-|--5---5---5(5)--|--3---3---3--|-
Db-|----------------|--3---3---3--|-


RIFF E
                                       PLAY SECOND TIME
Eb-|--0---0---0--|----------------------/-----|-
Bb-|--1---1---1--|-----------------(6h8p6h8)--|-
Gb-|--4---4---4--|----------------------------|-
Db-|--2---2---2--|--5---5---(5)---------------|-
Ab-|--0---0---0--|--5---5---(5)---------------|-
Db-|-------------|--5---5---(5)---------------|-
                              \ 
                               DON'T PLAY SECOND TIME

RIFF F

Eb-|-------------|-------------------|-
Bb-|-------------|-------------------|-
Gb-|-------------|-------------------|-
Db-|--5---5---5--|--5-5-5-5-5-5-5-5--|-
Ab-|--3---3---3--|--5-5-5-5-5-5-5-5--|-
Db-|--3---3---3--|--5-5-5-5-5-5-5-5--|-



RIFF G

Eb-|-------------|-------------|-----------------|-
Bb-|-------------|-------------|-----------------|-
Gb-|-------------|-------------|-----------------|-
Db-|--5---5---5--|--5---5---5--|--5---5---5---5--|-
Ab-|--3---3---3--|--3---3---3--|--5---5---5---5--|-
Db-|--3---3---3--|--3---3---3--|--5---5---5---5--|-



RIFF H

Eb-|----------------|-
Bb-|----------------|-
Gb-|----------------|-
Db-|--5-5------5-5--|-
Ab-|--5-5------5-5--|-
Db-|--5-5------5-5--|-



RIFF I

Eb-|----------------|-
Bb-|----------------|-
Gb-|--0~~~~~~~~~~~--|-
Db-|----------------|-
Ab-|----------------|-
Db-|----------------|-

__________________________________________________________________________
PROGRESSION


[RIFF A: x6]

For so long my life's been sewn up tight inside your hold
And it leaves me there without a place to call my own 

[RIFF B: x3]

I know now what shadows can see
There's no point in running 'less you run with me
It's half the distance through the open door

[RIFF C: x1]

Before you cut me down
Again
Let me introduce you to the end 

[RIFF A+D: x2] -DISTORTION

[RIFF A: x4]

And I feel the cold wind blowing beneath my wings
It always leads me back to suffering
But I will soar until the wind whips me down
Leaves me beaten on unholy ground again 

[RIFF E: x3]

So tired now of paying my dues
I start out strong but then I always lose
It's half the distance before you leave me behind

[RIFF F: x1]

It's such a waste of time 

[RIFF D: x4]

[Chorus]
'Cause my shackles
You won't be
And my rapture
You won't believe
And deep inside you will bleed for me 

[RIFF A: x4]

So here I slave inside of a broken dream
Forever holding on to splitting seams
So take your piece and leave me alone to die
I don't need you to keep my faith alive 

[RIFF E: x3]

I know now what trouble can be
And why it follows me so easily
It's half the distance through the open door

[RIFF G: x1]

Before you shut me down
Again
Let me introduce you to the end 

[RIFF D: x4]

[Chorus]

[RIFF H: x8] AND [RIFF I] OVER FIRST 4 BARS, SOLO ON LAST 4 BARS

Though you know you care 

[RIFF D: x8]

[Chorus]

And my laughter
You won't hear
The faster 
I disappear
And time will burn your eyes to tears 

[RIFF H: x12] PLAY SOLO OVER LAST 8 BARS.



I WAS UNABLE TO FIGURE OUT THE SOLOS, MAYBE SOMETIME SOON THOUGH.





Comments


Popular Vertical Horizon tabs & chords
Best I Ever Had Bass Tabs
Afterglow Chords
Give You Back 2 Chords
Miracle Chords
When You Cry Chords
Everything You Want 1 Tabs
Forever 1 Tabs
I Try Intro Tabs
Lines Upon Your Face Ukulele
You Say Ukulele


Song lyrics



↑ Back to top | Tablatures and chords are parodies/interpretations of the original songs. You may use it for private study, scholarship, research or language learning purposes only
© 2014 AZChords.com Contact us | Privacy policy | DMCA | Add/correct tabs | Request tabs | Top 50 tabs