>
 >
Shackled

Shackled Guitar Tabs

Vertical Horizon - Shackled chords, tabs, tablatures, lyrics

Guitar lessons | Add/correct | Request | Top 50 tabs Artists:  A B C D E F G H I J K L M N O P Q R S T U V W X Y Z 0-9

Shackled Guitar Tabs – Vertical Horizon

CD, Sheet music, Poster

Do you like Shackled? Share with your friends now
ChordsTabsTabs v2Tabs v3Tabs v4Ukulele
Tuning: Drop Db


Intro (acoustic guitar)

eb|----------------------|-------------|
Bb|---5-xx--5---0-7*--0--|---0---0-----|
Gb|---5-xx--5s7---7*----0|-------------|
Db|---------------7*-----|-2---2---2p0-|
Ab|-0--------------------|-3---3---3---|
Db|-0--------------------|-3---3---3---|

Verse

eb|---------------------|--------------|
Bb|---5-xx--5---0--7*--0|----0---0-----|
Gb|---5-xx--5s7----7*--0|--------------|
Db|----------------7*---|-2----2---2p0-|
Ab|-0------------0------|-3----3---3---|
Db|-0------------0------|-3----3---3---|

Refrain

eb|--0-----------|------0-0------|
Bb|--0-----------|-0----1-3---3--|
Gb|--5--x-5----5-|-0----0-0---0--| 3x
Db|--7--x-7----7-|-5----2s4---4--|
Ab|--7--x-7--7---|-5----3s5-5-5--|
Db|--------------|-5----0-0------|

eb|-------------|--------------|--------|-----------------|-----|
Bb|-------------|--------------|--------|-----------------|-----|
Gb|-------------|--------------|--------|-----------------|-----|
Db|--5----5--5--|-5--5--5s7s---|-5----5-|-5-5-5-5-5-5-5-5-|-5~~-|
Ab|--3----3--3--|-3--3---------|-3----3-|-5-5-5-5-5-5-5-5-|-5~~-|
Db|--3--3-3--3--|-3--3-------3-|-3--3-3-|-5-5-5-5-5-5-5-5-|-5~~-|

Chorus

eb|------------------|------------------|
Bb|o-3-3-3-3---------|-----------------o|
Gb|--2-2-2-2---------|------------------|
Db|--0-0-0-0-0-0-0-2-|-3-3-3-3-3-3-3-3--| 4x
Ab|o-0-0-0-0-0-0-0-2-|-3-3-3-3-3-3-3-3-o|
Db|--0-0-0-0-0-0-0-2-|-3-3-3-3-3-3-3-3--|

Solo

Guitar 1
eb|--------------|
Bb|--------------| 
Gb|--------------| several times 
Db|-0-0----0-0---| 
Ab|-0-0----0-0---| 
Db|-0-0----0-0---|

Guitar 2
eb|--------------|
Bb|--------------| 
Gb|--------------| 
Db|--10v~~~~~~~~~-| 
Ab|--------------| 
Db|--------------| 
  
eb|----------------------------------------------------------------------------|
Bb|-----------------------------------------12b13---13r12-10-12----------------|
Gb|-12-10~~-------------12-10~~---------------------------------11-------------|
Db|---------12-10----10---------12-10----10------------------------12-10----10-|
Ab|---------------12------------------12---------------------------------12----|
Db|----------------------------------------------------------------------------|

eb|-----------------------------------------------------------------------|
Bb|-----------------------------------------13b15--15--15--15--15--15--15-|
Gb|-12-10~~-------------12-10~~-------------------------------------------|
Db|---------12-10----10---------12-10----10-------------------------------|
Ab|---------------12------------------12----------------------------------|
Db|-----------------------------------------------------------------------|      

                                                               

Ending

Guitar 1
eb|--------------|
Bb|--------------| 
Gb|--------------| several times 
Db|-0-0----0-0---| 
Ab|-0-0----0-0---| 
Db|-0-0----0-0---|

Guitar 2
eb|----------------------------------| 
Bb|------8-----8-----8-----8-----8~~-| 
Gb|--0-5---0-5---0-5---0-5---0-5-----|
Db|----------------------------------| 
Ab|----------------------------------| 
Db|----------------------------------| 
  
eb|----------------------------------| 
Bb|------8------8----7-----7-----7~~-| 
Gb|--0-5---0-5---0-5---0-5---0-5-----| 
Db|----------------------------------| 
Ab|----------------------------------| 
Db|----------------------------------| 
  
eb|----------------------------------|
Bb|------8-----8-----8-----8-----8~~-| 
Gb|--0-5---0-5---0-5---0-5---0-5-----| 
Db|----------------------------------| 
Ab|----------------------------------| 
Db|----------------------------------| 
  
eb|------------------------8--------------| 
Bb|------8-----8-----6-6-6-----8---6------|
Gb|--0-5---0-5---0-5---------5---5--------| 
Db|----------------------------------5s3--| 
Ab|---------------------------------------|
Db|---------------------------------------| 
  
eb|----------------------------------|
Bb|------8-----8-----8-----8-----8~~-|
Gb|--0-5---0-5---0-5---0-5---0-5-----| 
Db|----------------------------------|
Ab|----------------------------------|
Db|----------------------------------|

eb|--------------------------------|
Bb|------8-----8-----7b10r7b10r7s--| 
Gb|--0-5---0-5---0-5---------------|
Db|--------------------------------|
Ab|--------------------------------| 
Db|--------------------------------| 
  

eb|----------------------------------| 
Bb|------8-----8-----8-----8-----8~~-|
Gb|--0-5---0-5---0-5---0-5---0-5-----|
Db|----------------------------------| 
Ab|----------------------------------|
Db|----------------------------------| 

Bothn guitars
eb|--------------| 
Bb|--------------|
Gb|--7-7----7-7s-|
Db|--7-7----7-7s-| 
Ab|--5-5----5-5s-|
Db|--------------| 

-END-





Comments


Popular Vertical Horizon tabs & chords
Best I Ever Had 3 Chords
Send It Up Chords
Song For Someone Chords
Forever Tabs
Inside Tabs
Liberty Tabs
Even Now Ukulele
Give You Back Ukulele
Sunshine Ukulele
When You Cry Ukulele


Song lyrics



↑ Back to top | Tablatures and chords are parodies/interpretations of the original songs. You may use it for private study, scholarship, research or language learning purposes only
© 2014 AZChords.com Contact us | Privacy policy | DMCA | Add/correct tabs | Request tabs | Top 50 tabs