» » »

Versaemerge, The Hider Bass tabs (ver.1)

Artists:  A B C D E F G H I J K L M N O P Q R S T U V W X Y Z # 

The Hider Bass tabs (ver.1)

Versaemerge Tabs
 Rating:
4/5 (4 votes)
The Hider lessons Tabs too difficult? Try these video lessons and learn fast
1
                
Tuning: drop d

intro
G|------------------|
D|------------------|
A|3~--33-3~--2~--2~-|
D|------------------|

chorus "it's something new you should try feeling!"
G|--------------------------------|---------------------------------------|
D|222-02222-2---------------------|02-22-02222-2--------------------------|
A|---------------023-3-3-5--------|-----------------023-3-3-5-------------|
D|-----------235-----------4-44444|-------------235-----------4-44-1-11-2-|

verse "we're drawn to be what we wish to see"
G|-----------------------------|
D|-----------------------------|
A|----------------2-2-2222-000-|
D|2-2-2-2-2-2-2-2-------------5|x3

okay this parts gonna sound funky cause it's on a four string and it doesn't have the 
notes that it needs to make the bass line so I improved one to suffice for it.
pre-chorus "let me clear my lungs show you.."
G|------------------------------------------------------------------|
D|----------------2-0-2-0-------------------------------------------|
A|------------------------3-2-0--------------02-3~-3h5~---0~----2-2~|
D|2-2-2-2-2-2-2-2---------------5-4-2-0-2-4-5-----------------------|

chorus "it's something new you should try feeling!"
G|--------------------------------|--------------------------------------|
D|222-02222-2---------------------|02-22-02222-2-------------------------|
A|---------------023-3-3-5--------|-----------------023-3-3-5------------|
D|-----------235-----------4-44444|-------------235-----------4-44-1-11--|

breakdown
G|-------------------|   |---------------------------------|
D|-----2-20-------1~-|   |-2-20-------1~----------11111111-|
A|----------2-0~-----|   |------2-0~-----33333333----------|
D|---2---------------|x2 |---------------------------------|

"fear of forgetting my name."
G|-------------------|   |--------2--------------------------|
D|-----2-20-------1~-|   |-2-20-----1---4~-----------11111112|
A|----------2-0~-----|   |------2-----2-----33333333---------|
D|---2---------------|x2 |-----------------------------------|

outro chorus
G|----------------|
D|----------------|
A|3-3-3-5---------|
D|-------4-444444-|

G|--------------------------------|-----------------------------------|
D|222-02222-2---------------------|02-22-02222-2----------------------|
A|---------------023-3-3-5--------|-----------------023-3-3-5---------|
D|-----------235-----------4-44444|-------------235-----------4-44444-|

G|----------------------------------------------------------------------------|
D|22202222222-2---------------------------------------------------------------|
A|----------------023-3-3-5-----------------------------023-3-3-5-------------|
D|-------------235----------4-444445-2222222222222-0235----------4-444-1-11-2-|
            
Submit corrections

comments powered by Disqus
↑ Back to top | Versaemerge Bass for The Hider. Lyrics for acoustic guitar and electric guitar. 1 Tablatures and chords are parodies/interpretations of the original songs. You may use it for private study, scholarship, research or language learning purposes only