» » »

Isacco Nucleare Tabs (ver.1)

Artists:  A B C D E F G H I J K L M N O P Q R S T U V W X Y Z # 

Isacco Nucleare Tabs (ver.1)

Verdena
Rating:
0/5 (0 votes)

Tabs too difficult? Try these video lessons and learn fast.
                

Accordatura Standard (EADGBe)

Intro1
e---------------------------------------------------
B---------------------------------------------------
G---------------------------------------------------
D--10--9--------------------------------------------
A--10--9--------------------------------------------X1
E--8---7--------------------------------------------
p.m p.m
Intro 2 + strofa
e---------------------------------------------------
B---------------------------------------------------
G------------------------10-------------------------
D--------8--10--------8-----------------------------
A--9-9-9--------9-9-9-------------------------------
E---------------------------------------------------


Rit "pioggia sui fili sono qui" sento effetti sotto accompagnati da batteria e basso ma non sento la chitarra

RIT accordi "Nubi d'isacco"
e---------------------------------------------------
B---------------------------------------------------
G--------------------------------------------------- X4
D--11--11--11--12----13-----------------------
A--11--11--11--12----13-----------------------
E--9---9---9---10----11-----------------------

"le Nubi d'isacco" parte arpeggiata
e----------9-----9-----12^--------------------------
B---------------------------------------------------
G------9------9-----9------------------------------- X4
D---------------------------------------------------
A---------------------------------------------------
----------------------------------------------------

e-------------11-------11-------------------------------
B---------------------------------------------------
G------9--11----9--11---------------------------------- X4
D---------------------------------------------------
A---------------------------------------------------
E---------------------------------------------------
p.m
e------9------12^---------------------------------
B------x--------------------------------------------
G------9------------------------------------------ X2
D---------------------------------------------------
A---------------------------------------------------
E--------------------------------------------------

e------------11------11-------------------------------
B---------------------------------------------------
G------9-11-----9-11----------------------------------- X4
D---------------------------------------------------
A---------------------------------------------------
E---------------------------------------------------


e------9------12-----9----------------------------
B------x------x------x------------------------------
G------9------12-----9------------------------------
D--------------------------------------------------- X2
A---------------------------------------------------
E--------------------------------------------------

Intro 2

Strofa 2

e---------------------------------------------------
B----------18------18-----18-------14-----14-------14
G------15------15-----15------11------11-------11---- X4
D---------------------------------------------------
A---------------------------------------------------
E---------------------------------------------------

Solo
e------------------------------------------------------------------------------------------------------
B------------------18-18-18-18-------------16-16-16-16-------------10-10-10-10-------------------------
G------15-15-15-15-------------15-15-15-15-------------15-15-15-15------------15p13h15--15-15----------X2
D------------------------------------------------------------------------------------------------------
A------------------------------------------------------------------------------------------------------
E------------------------------------------------------------------------------------------------------
RIT accordi "Nubi d'isacco"
e---------------------------------------------------
B---------------------------------------------------
G---------------------------------------------------
D--11--11--12---13----------------------------------X4
A--11--11--12-- 13----------------------------------
E--9---9---10---11----------------------------------


"le Nubi d'isacco" parte arpeggiata
e----------9-----9-----12^--------------------------
B---------------------------------------------------
G------9------9-----9------------------------------- X4
D---------------------------------------------------
A---------------------------------------------------
----------------------------------------------------

e---------------------------------------------------
B---------------------------------------------------
G--------------------------------------------------- x4
D---------------------------------------------------
A---------------------------------------------------
E--9---9-9--10---11----------------------------------

e------------11------11-------------------------------
B---------------------------------------------------
G------11-9-----11-9----------------------------------- X4
D---------------------------------------------------
A---------------------------------------------------
E---------------------------------------------------

e------9------12-----9----------------------------
B------x------x------x------------------------------
G------9------12-----9------------------------------
D--------------------------------------------------- X2
A---------------------------------------------------
E--------------------------------------------------

e---------------------------------------------------
B---------------------------------------------------
G------------------------10-------------------------
D--------8--10--------8-----------------------------
A--9-9-9--------9-9-9-------------------------------
E---------------------------------------------------

e---------------------------------------------------
B---------------------------------------------------
G---------------------------------------------------
D--10--9--------------------------------------------
A--10--9--------------------------------------------
E--8---7--------------------------------------------
p.m p.m.
            
Tabs too difficult? Try these video lessons and learn fast.




comments powered by Disqus
↑ Back to top | Tablatures and chords are parodies/interpretations of the original songs. You may use it for private study, scholarship, research or language learning purposes only