» » »

Verdena, Angie Tabs (ver.1)

Artists:  A B C D E F G H I J K L M N O P Q R S T U V W X Y Z # 

Angie Tabs (ver.1)

Verdena Tabs
Rating:
4/5 (2 votes)
Angie lessons Tabs too difficult? Try these video lessons and learn fast
                REQUIEM - ANGIE

iNTRO:

   FA              DO-			     REb
E |--------4-----|--------------3----------|--------------------|
B |-----------6--|--------4-----------4----|-----------6--------|
G |-----5--------|-----------5-----5-----5-|--------6----6------|
D |--3-----------|-----5-------------------|-----6--------------|
A |--------------|--3----------------------|--4-----------------|
E |--------------|-------------------------|--------------------|

   LAb		FA	     SIb-			MIb
E |-----------|-------------|-------------------------|---------|
B |--------4--|---------9---|--------------6----------|-------8-|
G |--------5--|---------10--|-----------7-----7--87---|-------8-|
D |-----------|-----10------|--------8-------------8--|-----8---|
A |-----6-----|--8----------|-----8-------------------|--6------|
E |--4--------|-------------|--6----------------------|---------|

   LAb		REb	    SOL		  DO
E |-----------|-----------|-------------|-----------------------|
B |--------4--|--------6--|-------------|--5--------------------|
G |--------5--|--------6--|--------4----|--5--------------------|
D |-----------|-----6-----|-----5----5--|--5--------------------|
A |-----6-----|--4--------|-------------|--3--------------------|
E |--4--------|-----------|--3----------|-----------------------|

per la strofa è lo stesso giro....

il ritoello segue un accordo di FA+ con un riff che dovrebbe essere il seguente:

E |-------------------------|--------------------------|
B |-------------------------|--------------------------|
G |--------------------232--|--------------------------|
D |--------------2--3-------|--------------2-----------|
A |-----0--2--3-------------|-----0--2--3-----0--2--3--|
E |--1----------------------|--1-----------------------| Tutto per due

il finale non lo so perciò inventate gente inventate............

la posto anche in liric


Verdena-Angie

intro: Fa Do- Reb Lab Fa- Sib Sib4/7 Mib Lab Reb Sol Do

Fa      Do-        Reb          Lab  Fa-
Prima o poi mi sparerai alle spalle, Angie
Sib  		     Sib4/7
Credi in ciò che fai
Mib      Lab  Reb     Sol  Do
Senza lacrime mi distruggerai

Fa   Do-     Reb      Lab  Fa-
Laverai le tue mani rosse, Angie
Sib  	         Sib4/7
Scuro più che mai
Mib      Lab  Reb     Sol  Do
Senza lacrime ti addormenterai

Fa
Come mai, che ne sai, semmai,
Rido in le, semmai
Nei tuoi nei io mai.


Fa      Do-        Reb          Lab  Fa-
Lunedì è il giorno delle streghe, Angie
Sib  	         Sib4/7
Sai come si fa
Mib      Lab  Reb     Sol  Do 
Senza lacrime, mi distruggerai

FA
Ora mai, che ne sai, semmai
Rido in lei semmai
Nai tuoi nei io mai.
            

comments powered by Disqus
↑ Back to top | Verdena Tabs for Angie. Lyrics for acoustic guitar and electric guitar. Tablatures and chords are parodies/interpretations of the original songs. You may use it for private study, scholarship, research or language learning purposes only