» » »

Venom, Warhead Tabs (ver.2)

Artists:  A B C D E F G H I J K L M N O P Q R S T U V W X Y Z # 

Warhead Tabs (ver.2)

Venom Tabs
 Rating:
4/5 (4 votes)
Warhead lessons Tabs too difficult? Try these video lessons and learn fast
                Just learned this song by ear and it only took about 5-10 minutes. Its in Drop D tuning.

Riff 1 (song starts with a pick slide after drums)
d:|-----------------------------------------------------------|
A:|----------------------5------------------------------------|
F:|------------------------8-7-6------------------------------|
C:|-------9---9-9----------------7----------------------------|  4X
G:|-------7---7-7---------------------------------------------|
D:|-----------------------------------------------------------|







Riff 2
d:|-----------------------------------------------------------|
A:|-----------------------------------------------------------|
F:|-----------------------------------------------------------|
C:|----------3--4---------------------------------------------| 2X
G:|-4--3-----1--2----4-----3-3-3-3-3-3------------------------|
D:|-2--1-------------2-----1-1-1-1-1-1------------------------|



Riff 3
d:|-------------------------------------------|--------------|
A:|-------------------------------------------|--------------|
F:|-------------------------------------------|--------------|
C:|-------------------------------------------|--------------|
G:|-------5h7-----4h5----------5h7------4-3---|-----2--------|
D:|--0-0--------0------0-0-0---------0--2-1---|-----0--------|
            
Submit corrections

comments powered by Disqus
↑ Back to top | Venom Tabs for Warhead. Lyrics for acoustic guitar and electric guitar. Tablatures and chords are parodies/interpretations of the original songs. You may use it for private study, scholarship, research or language learning purposes only