» » »

Venom, In League With Satan Tabs (ver.2)

Artists:  A B C D E F G H I J K L M N O P Q R S T U V W X Y Z # 

In League With Satan Tabs (ver.2)

Venom Tabs
 Rating:
4.4/5 (7 votes)
In League With Satan lessons Tabs too difficult? Try these video lessons and learn fast
1
                Tuning: C# (down three half-steps)

Figure 1:

|--------------------------------------------------|
|--------------------------------------------------|
|--------------------------------------------------|
|---------------------5-7----------------------5---|
|-5/7-----7-----7-----3-5--5/7-----7-----7-----3-5-|
|-3/5-5-5-5-5-5-5-5-5------3/5-5-5-5-5-5-5-5-5---3-| x4

Figure 2:

|---------------------------------------------------|
|---------------------------------------------------|
|---------------------------------------------------|
|---------------------------------------------------|
|-2-----2-----2-------------2-----2-----2-----------|
|-0-0-0-0-0-0-0-0-0-0-0-0-0-0-0-0-0-0-0-0-0-0-2h3p2-| x2

Figure 3:

|-----------------------------|
|-----------------------------|
|-----------------------------|
|-----------------------------|
|-7--7--5--5--7--7--5-5-5-7-5-|
|-5--5--3--3--5--5--3-3-3-5-3-| x2

Figure 4:

|-----------------------------------|
|-----------------------------------|
|-----------------------------------|
|-----------------------------------|
|-7---7---7--2-2-5--7--7-7-7--5-5-5-|
|-5-5-5-5-5--0-0-3--5--5-5-5--3-3-3-| x2
Figure 1 x4

Figure 2 x2

Figure 3 x2

Figure 4 x2

Solo:

Rhythm:

Figure 1 x2

Figure 2 x2

Lead:

|--------------------------------------------------|
|--------------------------------------------------|
|--------------------------------------------------|
|--------------------------------------------------|
|--------------------------10----------------------|
|--------------------------------------------------|

|--------------------------------------------------|
|--------------------------------------------------|
|-----------------------------------9--------------|
|--------------------------------------------------|
|--------------------------------------------------|
|--------------------------------------------------|

|--------------------------------------------------|
|-------------------------------12-----------------|
|--------------------------------------------------|
|--------------------------------------------------|
|--------------------------------------------------|
|--------------------------------------------------|

|-12-----------------------------------------------|
|---------------------------12-12------------------|
|--------------------------------------------------|
|--------------------------------------------------|
|--------------------------------------------------|
|--------------------------------------------------|

End Solo

Figure 1 x4

Figure 2 x2

Figure 3 x2

Figure 4 x2

Figure 5:

|--------------------------------------------------------------------|
|--------------------------------------------------------------------|
|--------------------------------------------------------------------|
|----------------------------13-15-----------------------------13----|
|-13-------13-------13-------11-13--13-------13-------13-------11-13-|
|-11-11-11-11-11-11-11-11-11--------11-11-11-11-11-11-11-11-11----11-| x4
            
Submit corrections

comments powered by Disqus
↑ Back to top | Venom Tabs for In League With Satan. Lyrics for acoustic guitar and electric guitar. 1 Tablatures and chords are parodies/interpretations of the original songs. You may use it for private study, scholarship, research or language learning purposes only