>
 >
Countess Bathory 2

Countess Bathory 2 Guitar Tabs

Venom - Countess Bathory 2 chords, tabs, tablatures, lyrics

Guitar lessons | Add/correct | Request | Top 50 tabs Artists:  A B C D E F G H I J K L M N O P Q R S T U V W X Y Z 0-9

Countess Bathory 2 Guitar Tabs – Venom

CD, Sheet music, Poster

Do you like Countess Bathory 2? Share with your friends now
TabsTabs v2Tabs v3Tabs v4
Please note that I have transcribed this tab in E standard. I know the original tuning
of the song was C# but I personally dislike de-tuning and wanted to be able to play it in
standard. So I just put this on the internet for anyone else that feels the same way as 
me. I hope you enjoy playing one of the best songs out there! \m/

Main Riff
|---------------------------------|
|---------------------------------|
|-6-6--------------4-4------------|
|-6-6--------7-----4-4----------5-|
|-4-4--------7-----2-2----------5-|
|-----555555-5--55-------333333-3-|
      ......    ..       ......

|-----------------------------------------------------|
|-----------------------------------------------------|
|-----------------------------------------------------|
|-4-4------------4-4---------4------4-4------------4*-|
|-4-4---------7--4-4---------2-\-7--4-4---------7--4*-|
|-2-2-222222--5--2-2-222222------5--2-4-222222--5-2*-|
      ......         ......             ......     *Drop Whammy Bar Slowly

Rhythm behind lyrics
|---------------------------------------------------------|
|---------------------------------------------------------|
|---------------------------------------------------------|
|-4---------------4--------------4---------------4------7-|
|-4-------2b------4-------7------4---------2b----4------7-|
|-2-------0b------2-------5------2---------0b----2------5-|
               "Countess.........
|----------------------------------------------|
|----------------------------------------------|
|---------------6-6---------------4-4----------|
|-6---6---------6-6---------------4-4--------5-|
|-6---6---------4-4---------7-----2-2--------5-|
|-4---4--------------555555-5--88-----333333-3-|
                     ......    ..     ......

Bridge
|-----------------------------------------------------|
|-----------------------------------------------------|
|-4------------------------------------4--------------|
|-4--7--6--4-4-------------------------4--7--6--4-4---|
|-2--7--6--4-4--4----------------------2--7--6--4-4-4-|
|----5--4--2-2--2--222-222-222-222-22-----5--4--2-2-2-|
           .       ... ... ... ... ..           .

|------------------------------------|
|------------------------------------|
|--------------------------------6-6-|
|--------------------7-6-2b-----6-6-|
|--------------------7-6-2b-----4-4-|
|-222-222-222-222-22-5-4-0b---------|
  ... ... ... ... ..


|-------------------------------------------|
|-------------------------------------------|
|-------------------------------------------|
|-------------4-----------------------------|
|-4--7--6--7-----7--6--4---7--6--4--6--7--9-|
|--------------------------------------5--7-|

|----------------------------------------|
|----------------------------------------|
|----------------------------------------|
|-------------4--------------------------|
|-4--7--6--7-----7--6--4---7--6--4--6--7-|
|--------------------------------------5-|





Comments


Popular Venom tabs & chords
Stand Up Bass Tabs
Welcome To Hell 2 Bass Tabs
Angel Dust 1 Tabs
Black Metal 1 Tabs
In Nomne Satanas Tabs
Red Light Fever Tabs
Skeletal Dance Intro Tabs
Warhead 1 Tabs
Welcome To Hell 2 Tabs
Witching Hour Tabs


Song lyrics



↑ Back to top | Tablatures and chords are parodies/interpretations of the original songs. You may use it for private study, scholarship, research or language learning purposes only
© 2014 AZChords.com Contact us | Privacy policy | DMCA | Add/correct tabs | Request tabs | Top 50 tabs