>
 >
Buried Alive

Buried Alive Guitar Tabs

Venom - Buried Alive chords, tabs, tablatures, lyrics

Guitar lessons | Add/correct | Request | Top 50 tabs Artists:  A B C D E F G H I J K L M N O P Q R S T U V W X Y Z 0-9

Buried Alive Guitar Tabs – Venom

CD, Sheet music, Poster

Do you like Buried Alive? Share with your friends now
TabsTabs v2Tabs v3
Band:  (Venom)

Copyright (c)  (Neat Records) (1982)
Version 1.0 - (Feb, 27, 2010)



.  - palm mute           /  - slide up to
\  - slide down to       ~  - vibrato
h  - hammer on           b  - Bend
p  - pull off            Suffixes for bend
t  - tap                 f  - full bend    h - half bend
ph - pinched harmonic    q  - quarter bend t - tap bend
*  - see comment         ^  - Hold bend    r release bend
x  - Stuccatto           ~  - vibrato bend
,  - slight palm mute    () - ghost note, sustained note
"  - tremolo note        <> - Trill
bp - Bend and pull off   bh - bend and hold
bhr- Bend hold release



Tuning C# F# B E G# C#
1.5 Steps down

Intro
|-------------------------------------------------------------------|
|------------Clean-Guitar-and-Reverb--------------------------------|
|------7----------------------7----------7----3----5----------------|
|----7-------8----5---7-------7----7-----7----3----5-----ETC--------|
|--5-------8------5---7-------5----7-----5----1----3----------------|
|--------6--------3---5------------6--------------------------------|


Ctnd. and Verse/s
|-------------------------------------------------------------------|
|----------------Distorted------------------------------------------|
|---------7---3---5---------10------------------8-------------------|
|-7--5----7---3---5-x4------10--10--------------8--8----------------|
|-7--5----5---1---3---------8---10--------------6--8----------------|
|-5--3--------------------------8--8888-8888-------6-6666-6666------|
                                   .... ....         .... ....
                                    PM   PM           PM   PM

Pre solo
|-------------------------------------------------------------------|
|-------------------------------------------------------------------|
|-------------------------------------------------------------------|
|---7---5----7--7--7--x4--------------------------------------------|
|---7---5----7--7--7------------------------------------------------|
|---5---3----5--5--5------------------------------------------------|





Main Solo 2:36     All bends are full
|-------------------------------------------------------10br10------|
|---------------------------------------------8-10-10-8-------------|
|-------------------------5-7--7bp5------7/9------------------------|
|-------(5)--7-7-5~---5h7------------7h9----------------------------|
|---5h7-------------------------------------------------------------|
|-------------------------------------------------------------------|

 2:45
|-8h10p8------------------------------------------------------------|
|--------10-8h10p8--------------------------------------------------|
|------------------9-7h9p7---5-------------------5---7---7bp5---5~--|
|--------------------------7-------7---5~---5h7---------------7-----|
|-------------------------------------------------------------------|
|-------------------------------------------------------------------|

15th and 12th frets you tap with your picking hand
2:52
|-------------------------------------------------------------------|
|--------tap--------------tap------------tap--the--9th--frets-------|
|-7bhr---h15--p7release---h12~-----5--7~--9p7p5--9p7p5--9p7p5-------|
|-slight---------bend-------------------------------------------7~--|
|-release-----------------------------------------------------------|
|-the-bend----------------------------------------------------------|
 when tapping


2:57
|-----------------------------------20bh--20~--20p19p17-------------|
|------17-h20p17--17-20b~~---20p17-----------------------20---------|
|--/19----------19--------------------------------------------------|
|-------------------------------------------------------------------|
|-------------------------------------------------------------------|
|-------------------------------------------------------------------|

3:02
|-------------------------------------------------------------------|
|--20bh-----20~~-17-18----20-20p18p17--17~~~--17\down---------------|
|------------------------------------19-----------------------------|
|-------------------------------------------------------------------|
|-------------------------------------------------------------------|
|-------------------------------------------------------------------|

3:07

|------------------------------------17---17-20-17--20br-(p17)------|
|------------------------------17-20--------------------------------|
|-----------16h17~----16h17h19--------------------------------------|
|--19-17h19---------------------------------------------------------|
|-------------------------------------------------------------------|
|-------------------------------------------------------------------|

This might be hard to understand at 3:12 in the song, that "rising" 
sound is ALL ONE NOTE. You pick it only once and bend it 
progressively more, Its not a gradual bend its fairly choppy listen
the the part in the song youll see  (Ive included a legend)

3:12
|----------------------------------20b-20p17--------------------------|
|--20--20b21--20b22--20b24---20p17-----------(20)-20b~~---------------|
|-----quarter-half---bend-------------------------------END-----------|
|------bend---bend---up-two-------------------------------------------|
|-----------------more semitones--------------------------------------|
|-----ONLY--PICK--ONCE------------------------------------------------|




|-------------------------------------------------------------------|
|----------------Distorted------------------------------------------|
|--7---3---5-----------------10------------------8------------------|
|--7---3---5-x4--7---5-------10--10--------------8--8----x3---------|
|--5---1---3-----7---5-------8---10--------------6--8---------------|
|----------------5---3-----------8--8888-8888-------6-6666-6666-----|
                                    .... ....         .... ....
                                     PM   PM           PM   PM



OUTRO SOLO
|-------------------------------------------------------------------|
|---------------------------------------9b11~~-9-6------------------|
|-------8h10--10b12--10br-10~~------6h8------------8-6--8b11~~------|
|--8h10-------------------------6h8---------------------------------|
|-------------------------------------------------------------------|
|-------------------------------------------------------------------|

|-------------------------------------------------------------------|
|--8-11b13~~~11br--11-8---------------------9p6-6h9--9b11~~---------|
|----------------------10-8~---6h8p6-8b10r-----8---8----------------|
|-------------------------------------------------------------------|
|-------------------------------------------------------------------|
|-------------------------------------------------------------------|

END OF SONG
|-------------------------------------------------------------------|
|-------------------------------------------------------------------|
|-------------------------------------------------------------------|
|----7----7---------------------------------------------------------|
|----7----7---------------------------------------------------------|
|----5----5---------------------------------------------------------|
END





Comments


Popular Venom tabs & chords
Chanting Of The Priests Bass Tabs
Stand Up 1 Bass Tabs
At War With Satan Tabs
Buried Alive 1 Tabs
Genocide Tabs
In Nomne Satanas Tabs
Leviathan Tabs
Manitou Tabs
Red Light Fever Tabs
Woman Leather And Hell Tabs


Song lyrics



↑ Back to top | Tablatures and chords are parodies/interpretations of the original songs. You may use it for private study, scholarship, research or language learning purposes only
© 2014 AZChords.com Contact us | Privacy policy | DMCA | Add/correct tabs | Request tabs | Top 50 tabs