» » »

Venom, Angel Dust Tabs (ver.1)

Artists:  A B C D E F G H I J K L M N O P Q R S T U V W X Y Z # 

Angel Dust Tabs (ver.1)

Venom Tabs
Rating:
5/5 (1 vote)
Angel Dust lessons Tabs too difficult? Try these video lessons and learn fast
                
Tuning C# F# B E G# C#

Main Riff:

|--------------------------|
|--------------------------|
|--2----2------------------|
|--2----2------------------|
|--0----0----5p0--3p0------|
|----------------------3---|

I play this riff through the entire song but there are some variations like this:

|--------------------------|
|--------------------------|
|--2----2------------------|
|--2----2------------------|
|--0----0------0----0---0--|
|--------------------------|

this:
|--------------------------|
|--------------------------|
|--2----2------------------|
|--2----2------------------|
|--0----0----5----3--------|
|--------------------------|

and this:

|--------------------------|
|--------------------------|
|--2----2--------------2---|
|--2----2--------------2---|
|--0----0--------------0---|
|-------------3----4-------|


Anyway, here’s the song

Intro: 
|--------------------------|--------------------------|
|--------------------------|--------------------------|
|--2----2------------------|--2----2------------------|
|--2----2------------------|--2----2------------------|
|--0----0----5p0--3p0------|--0----0----5p0--3p0------|
|----------------------3---|----------------------3---|

|--------------------------|--------------------------|
|--------------------------|--------------------------|
|--2----2------------------|--2-----------------------|
|--2----2------------------|--2----3----3----3-s-5----|
|--0----0----5p0--3p0------|--0----3----3----3-s-5----|
|----------------------3---|-------1----1----1-s-3----|

|--------------------------|--------------------------|
|--------------------------|--------------------------|
|--2----2------------------|--2----2------------------|
|--2----2------------------|--2----2------------------|
|--0----0----5p0--3p0------|--0----0----5p0--3p0------|
|----------------------3---|----------------------3---|

|--------------------------|--------------------------|
|--------------------------|--------------------------|
|--2----2------------------|--2-----------------------|
|--2----2------------------|--2----3----3----3-s-5----|
|--0----0----5p0--3p0------|--0----3----3----3-s-5----|
|----------------------3---|-------1----1----1-s-3----|

Riff 2 (x2)

|----------------------|----------------------|
|----------------------|----------------------|
|--2----2----------2---|---5----5----7----5---|
|--2----2----------2---|---5----5----7----5---|
|--0----0----------0---|---3----3----5----3---|
|------------3--4------|----------------------|

|----------------------|----------------------|
|----------------------|----------------------|
|--2----2----------2---|---5----5-------------|
|--2----2----------2---|---5----5----5----5---|
|--0----0----------0---|---3----3----5----5---|
|------------3--4------|-------------3----3---|


Riff 3

|----------------------|----------------------|
|----------------------|----------------------|
|--2----2----------2---|--2----2----------2---|
|--2----2----------2---|--2----2----------2---|
|--0----0----------0---|--0----0----------0---|
|------------3--4------|------------3--4------|

|----------------------|----------------------|
|----------------------|----------------------|
|--2----2----------2---|---5----5----7----5---|
|--2----2----------2---|---5----5----7----5---|
|--0----0----------0---|---3----3----5----3---|
|------------3--4------|----------------------|

|----------------------|----------------------|
|----------------------|----------------------|
|--2----2----------2---|--2----2----------2---|
|--2----2----------2---|--2----2----------2---|
|--0----0----------0---|--0----0----------0---|
|------------3--4------|------------3--4------|

|----------------------|----------------------|
|----------------------|----------------------|
|--2----2----------2---|---5----5-------------|
|--2----2----------2---|---5----5----5----5---|
|--0----0----------0---|---3----3----5----5---|
|------------3--4------|-------------3----3---|

Riff 4

|----------------------|---------------------|
|----------------------|---------------------|
|----------------------|---------------------|
|--2----2--------------|--2----2-------------|
|--2----2--------------|--2----2-------------|
|--0----0---0-0-0-0-0--|--0----0--0-0-0-0-0--|

|----------------------|----------------------|
|----------------------|----------------------|
|----------------------|----------------------|
|--2----2--------------|---5----5----7----5---|
|--2----2--------------|---5----5----7----5---|
|--0----0---0-0-0-0-0--|---3----3----5----3---|



Riff 5
|---------------------|----------------------|---------------------|
|---------------------|----------------------|---------------------|
|---------------------|----------------------|---------------------|
|--3--3--3--5--5--5---|---7--7--7--5--5--5---|--3--3--3--5--5--5---|
|--3--3--3--5--5--5---|---7--7--7--5--5--5---|--3--3--3--5--5--5---|
|--1--1--1--3--3--3---|---5--5--5--3--3--3---|--1--1--1--3--3--3---|


Then play everything again from the very beginning


Solo

|-5-8-5---5------------------------------------------------------------
|-------8---8-5-8-5---5------------------------------------------------
|-------------------7---7-5---5---7b---7b-----5h7p5---5----------------
|---------------------------7-----------------------7---7-5--7b---7b---
|----------------------------------------------------------------------
|----------------------------------------------------------------------

-----------------------------------------------------------------------
-----------------------------------------------------------------------
------------5h7p5----------------5h7p5---5b----------------------5---5-
--5h7p5h7p5-------7b---5h7p5h7p5-------7--------7b----5h7p5h7p5----7---
-----------------------------------------------------------------------
-----------------------------------------------------------------------

-------------------------------------------------------------------------|
-----------------------------------------------13-15b-15-13-----13b------|
-7b—7b—7b—7b—7fb---5h7p5---5ph-5fb/14fb/17fb-----------------14------14b-|
-------------------------7-----------------------------------------------|
-------------------------------------------------------------------------|
-------------------------------------------------------------------------|


Riff 6 (6 times)

|---------------|--------------|------------------|
|---------------|--------------|------------------|
|---------------|--------------|------------7-----|
|--7--7--7---5--|-3--3--3---3--|--5--5--5---7--7--|
|--7--7--7---5--|-3--3--3---3--|--5--5--5---5--7--|
|--5--5--5---3--|-1--1--1---1--|--3--3--3------5--|



Outro

|--------|--------|------------------------|
|--------|--------|------------------------|
|--5-----|--8-----|--5---------------------|
|--5--5--|--8--8--|--5--5----7777777777777-|
|--3--5--|--6--8--|--3--5----7777777777777-|
|-----3--|-----6--|-----3----5555555555555-|
            

comments powered by Disqus
↑ Back to top | Venom Tabs for Angel Dust. Lyrics for acoustic guitar and electric guitar. Tablatures and chords are parodies/interpretations of the original songs. You may use it for private study, scholarship, research or language learning purposes only