» » »

Velvet Underground, Waiting For The Man Tabs (ver.2)

Artists:  A B C D E F G H I J K L M N O P Q R S T U V W X Y Z # 

Waiting For The Man Tabs (ver.2)

Velvet Underground Tabs
Rating:
0/5 (0 votes)
Waiting For The Man lessons Tabs too difficult? Try these video lessons and learn fast
                ----------------4-4-4----------------9-9-9-|
----------------4-4-4----------------9-9-9-|
--------67-9999-2-2-2----11-12-14-14-7-7-7-|
7-7-7-7---------------12-------------------|
-------------------------------------------|
-------------------------------------------|

----------------4-4-4----------------9-9-9-|
----------------4-4-4----------------9-9-9-|
--------67-9999-2-2-2----11-12-14-14-7-7-7-|
7-7-7-7---------------12-------------------|
-------------------------------------------|
-------------------------------------------|

this is from a gorgeous downtempo arrangement of the song off the album "Le Bataclan 
a recording of Lou Reed, John Cale, and Nico perfoming together after the break up of the 
Underground, but it could probably also serve as a nice addition to basically any cover arrangement.
            

comments powered by Disqus
↑ Back to top | Velvet Underground Tabs for Waiting For The Man. Lyrics for acoustic guitar and electric guitar. Tablatures and chords are parodies/interpretations of the original songs. You may use it for private study, scholarship, research or language learning purposes only