>
 >
Crawl Back

Crawl Back Guitar Tabs

Veil Of Maya - Crawl Back chords, tabs, tablatures, lyrics

Guitar lessons | Add/correct | Request | Top 50 tabs Artists:  A B C D E F G H I J K L M N O P Q R S T U V W X Y Z 0-9

Crawl Back Guitar Tabs – Veil Of Maya

CD, Sheet music, Poster

Do you like Crawl Back? Share with your friends now
Tabs
Veil Of Maya
The Common Mans Collapse

Written By Marc Okubo

Drop B Tuning
B F# B E G# C#

0:00

|----------------------------------------------|
|----------------------------------------------|
|----------------------------------------------|
|--7-------7---7-------8---8-------5---5-------|
|----------------------------------------------|
|----4p0h4---4---4p0h4---5---5p0h5---1---1p0h1-|


|------------------------------------------------|
|------------------------------------------------|
|------------------------------------------------|
|--7-------7---7-------12---12-------8---8-------|
|------------------------------------------------|
|----4p0h4---4---4p0h4----8----8p0h8---5---5p0h5-|


|----------------------------------------------------|
|----------------------------------------------------|
|----------------------------------------------------|
|--10-------10---10-------12---12-------8---8--------|
|----------------------------------------------------|
|-----7p0h7----7----7p0h7----8----8p0h8---5---5p0h5--|


|-----------------------------------------------------|
|-----------------------------------------------------|
|-----------------------------------------------------|
|--10-------10---10-------15--15-------12---12--------|
|-----------------------------------------------------|
|-----7p0h7----7----7p0h7---12--12p0h12---8----8p0h8--|

0:13

|---------------------------------------------------|
|---------------------------------------------------|
|---------------------------------------------------|
|--7-----------8-----5-----7-----------8-----5------|
|--4-0-1-5-4-1-5-0-1-1-0-1-4-0-1-8-7-4-5-0-1-1-0-1--|
|--4-0-1-5-4-1-5-0-1-1-0-1-4-0-1-8-7-4-5-0-1-1-0-1--|


|-----------------------------------------------------------|
|-----------------------------------------------------------|
|-----------------------------------------------------------|
|--7-----------8-----5-----7--------------7--7------12---12-|
|--4-0-1-5-4-1-5-0-1-1-0-1-4-0-1-8-7-4----------------------|
|--4-0-1-5-4-1-5-0-1-1-0-1-4-0-1-8-7-4-0h4--4--4-0h8---8---8|

0:37

|--------------------------------------------------------|
|--------------------------------------------------------|
|--------------------------------------------------------|
|--7--------------------------7--------------------------|
|--4-0-1-5-4-1--5------1------4-0-1-8-7-4--5------1------|
|--4-0-1-5-4-1--5-5555-1-1111-4-0-1-8-7-4--5-5555-1-1111-|

0:43

|----------------------------------------------------|
|----------------------------------------------------|
|------------------------------------------77----55--|
|------------------33----22--------------88----77----|
|--------------------------------1100----------------|
|--5511445544115511--4411--551144----4455----44------|


|------------------66----55--------6655----66--------11-11-|
|--------------------------------------88---------88-------|
|--7755----------77----77--7755----------77----------------|
|------8877778855----44--------8877----------10-10---------|
|----------------------------------------------------------|
|----------------------------------------------------------|

0:56 (Probably Not Accurate. The 0ís get annoying in tab)

|----------------------------------------|
|----------------------------------------|
|----------------------------------------|
|----------------------------------------|
|--0-0000-0-0000-0000000-0000-0-0000-000-|
|--0-0000-0-0000-0000000-0000-0-0000-000-|


|-----------------------------------------------------------|
|-----------------------------------------------------------|
|-----------------------------------------------------------|
|-----------------------------------------------------------|
|--0-0000-0-0000-0-0000-0000-0-0000-0000000-0000-0-0000-0-0-|
|--0-0000-0-0000-0-0000-0000-0-0000-0000000-0000-0-0000-0-0-|

|---------------------|
|---------------------|
|---------------------|
|---------------------|
|--0000-0000-0-0-0000-|
|--0000-0000-0-0-0000-|


|----------------------------------------------|
|----------------------------------------------|
|----------------------------------------------|
|----------------------------------------------|
|--0000-0-0-0-0000-0-0000-0000-0-0000-0000000--|
|--0000-0-0-0-0000-0-0000-0000-0-0000-0000000--|


|--------------------------------------------|
|--------------------------------------------|
|--------------------------------------------|
|--------------------------------------------|
|--0-0-0-0--0-0000-0-0000-0000-0-0000-000000-|
|--0-0-0-0--0-0000-0-0000-0000-0-0000-000000-|

1:16

|-------------------------------------------------------|
|-------------------------------------------------------|
|-----------------------------------------------222333--|
|--5----------------------5---------------555444--------|
|--------------0h1-0000---------------0h1---------------|
|----1-0h1h4h5-----0000-----1-0h1h4h5-------------------|


|--------------------------------------------------------------|
|--------------------------------------------------------------|
|--------------------------------------------------------------|
|--5----------------------5------------------12-12-----7---7---|
|--------------0h1-0000---------------0h1----------------------|
|----1-0h1h4h5-----0000-----1-0h1h4h5-----0h8--8--8-0h4--4---4-|


|--------------------------------|
|--------------------------------|
|--------------------------------|
|------8-------------------------|
|-----------0-0000-0-0000-000000-|
|--0h5---5--0-0000-0-0000-000000-|

1:42

|----------------------------------------------------------|
|----------------------------------------------------------|
|----------------------------------------------------------|
|-------12------------------------------15/17/15-----------|
|--10-------12--12/13----12-13-15-13/17----------17/13/17--|
|----0-0--0----0------0-0--0--0----------------------------|

|---------------------------|
|---------------------------|
|--------14/16/14-----------|
|--12/16----------16/12/16--|
|---------------------------|
|---------------------------|

|---------------------------------------------------|
|---------------------------------------------------|
|---------------------------------------------------|
|-------12----------------------10/12-----10--------|
|--10-------12--12/13----12-13----------------13-12-|
|----0-0--0----0------0-0--0--0-------8-8----8--8---|


|-----------------------|
|-----------------------|
|-----------------------|
|-----------------------|
|------12---13---12-----|
|--7-7----7----7----7---|

|---------------------------------------------------------|
|---------------------------------------------------------|
|---------------------------------------------------------|
|-------12------------------------------------------------|
|--10-------12--12/13----12-13-15--17-17-15-13-12-12-10-9-|
|----0-0--0----0------0-0--0--0---------------------------|

                                   ^^^^Tremolo Picked^^^^^

2:02

|---------------------------------------|
|---------------------------------------|
|---------------------------------------|
|------------------------------5h7p5p4--|
|--1---5---8-----0---1---4--------------|
|--1-0-5-0-8-0-0-0-0-1-0-4-0-0----------|

|--------------------------------|
|--------------------------------|
|--------------------------------|
|--------------------------------|
|--1---5---8-----0---1---4---7---|
|--1-0-5-0-8-0-0-0---1---4---7---|

|---------------------------------------|
|---------------------------------------|
|---------------------------------------|
|------------------------------5h7p5p4--|
|--1---5---8-----0---1---4--------------|
|--1-0-5-0-8-0-0-0-0-1-0-4-0-0----------|


|--------------------------------|
|--------------------------------|
|--------------------------------|
|--------------------------------|
|--1---5---8-----0---1---8---7---|
|--1-0-5-0-8-0-0-0---1---8---7---|

2:42

|----------------------------------------|
|----------------------------------------|
|----------------------------------------|
|--^---------^---------^------^----------|
|--b-0000-00-b-0000-00-b-0000-b-00-00-00-|
|--1-0000-00-1-0000-00-1-0000-1-00-00-00-|

Iím sure you can figure out this breakdown part.
Itís too hard to put into tab. Just use your brain.

3:06

|-----------------------|
|-----------13-13-13-13-|
|-----------12-12-12-12-|
|--^--------10-10-10-10-|
|--b--5---5-------------|
|--1----1---------------|

3:11

|---------------------------------------|
|---------------------------------------|
|---------------------------------------|
|--^-^-------^-------^-^-^-------^------|
|--b-b-5-----b-5-----b-b-b-5-----b-5----|
|--1-1---1---1---1---1-1-1---1---1---1--|





Comments


Popular Veil Of Maya tabs & chords
Dark Passenger Tabs
It's Not Safe To Swim Today 1 Tabs
Its Not Safe To Swim Today 5 Tabs
Martyrs Tabs
Namaste Tabs
Namaste 1 Tabs
The Uprising Intro Tabs
We Bow In It's Aura Tabs
We Bow In Its Aura 3 Tabs
Winter Is Coming Soon Tabs


Song lyrics



↑ Back to top | Tablatures and chords are parodies/interpretations of the original songs. You may use it for private study, scholarship, research or language learning purposes only
© 2014 AZChords.com Contact us | Privacy policy | DMCA | Add/correct tabs | Request tabs | Top 50 tabs