>
 >
Set It To Blow 1

Set It To Blow 1 Guitar Tabs

Vaux - Set It To Blow 1 chords, tabs, tablatures, lyrics

Guitar lessons | Add/correct | Request | Top 50 tabs Artists:  A B C D E F G H I J K L M N O P Q R S T U V W X Y Z 0-9

Set It To Blow 1 Guitar Tabs – Vaux

CD, Sheet music, Poster

Do you like Set It To Blow 1? Share with your friends now
TabsTabs v2
i didn't like the other version up. so i wrote this one correcting what mistakes i found.


INTRO

[guitar 1]
e|-12h13-[a bunch]-----------------------------------------------------------|
B|---------------------------------------------------------------------------|
G|---------------------------------------------------------------------------|
D|---------------------------------------------------------------------------|
A|---------------------------------------------------------------------------|
D|---------------------------------------------------------------------------|

[guitar 2] 2x
e|---------------------------------------------------------------------------|
B|---------------------------------------------------------------------------|
G|-5---9---7-----------------------------------------------------------------|
D|-x---x---x-----------------------------------------------------------------|
A|-3---7---5-----------------------------------------------------------------|
D|---------------------------------------------------------------------------|

[guitar 3] 2x
e|---------------------------------------------------------------------------|
B|---------------------------------------------------------------------------|
G|---------------------------------------------------------------------------|
D|-7--3--6-2--0--3-5---------------------------------------------------------|
A|-7--3--6-2--0--3-5---------------------------------------------------------|
D|-7--3--6-2--0--3-5---------------------------------------------------------|

CHORUS

[guitar 1 & 3]4x
e|---------------------------------------------------------------------------|
B|---------------------------------------------------------------------------|
G|---------------------------------------------------------------------------|
D|-77777777-33333-666-22222222-000-333-55------------------------------------|
A|-77777777-33333-666-22222222-000-333-55------------------------------------|
D|-77777777-33333-666-22222222-000-333-55------------------------------------|

[guitar 2]4x                 alternate ending
e|--------------------------|-------------------------------------------------|
B|--------------------------|-----------8h9p8---------------------------------|
G|-8-5-8-7---7-8-5-8-7---7--|-7h8p7-8p7---------------------------------------|
D|---------7-----------7----|-------------------------------------------------|
A|--------------------------|-------------------------------------------------|
D|--------------------------|-------------------------------------------------|

VERSE

[guitar 2 & 3]
e|---------------------------------------------------------------------------|
B|---------------------------------------------------------------------------|
G|---------------------------------------------------------------------------|
D|-77777777-33333-666-22222222-000-333-55------------------------------------|
A|-77777777-33333-666-22222222-000-333-55------------------------------------|
D|-77777777-33333-666-22222222-000-333-55------------------------------------|

[guitar 1]
e|-12h13-[a bunch]-----------------------------------------------------------|
B|---------------------------------------------------------------------------|
G|---------------------------------------------------------------------------|
D|---------------------------------------------------------------------------|
A|---------------------------------------------------------------------------|
D|---------------------------------------------------------------------------|

CHORUS 3x

then...
e|---------------------------------------------------------------------------|
B|---------------------------------------------------------------------------|
G|---------------------------------------------------------------------------|
D|-77777777-33333-666-2~-----------------------------------------------------|
A|-77777777-33333-666-2~-----------------------------------------------------|
D|-77777777-33333-666-2~-----------------------------------------------------|


[guitar 2]4x                 
e|----------------------------------------------------------------------------|
B|----------------------------------------------------------------------------|
G|-8-5-8-7---7-7~-------------------------------------------------------------|
D|---------7------------------------------------------------------------------|
A|----------------------------------------------------------------------------|
D|----------------------------------------------------------------------------|

BRIDGE

[guitar 2]
e|---------------------------------------------------------------------------|
B|---------------------------------------------------------------------------|
G|-7777-7778887-777-5557-777-8787--------------------------------------------|
D|-xxxx-xxxxxxx-xxx-xxxx-xxx-xxxx--------------------------------------------|
A|-5555-5556665-555-3335-555-6565--------------------------------------------|
D|---------------------------------------------------------------------------|

[guitar 1 & 3]
e|--------------------------------------------------------------------------------------|
B|--------------------------------------------------------------------------------------|
G|--------------------------------------------------------------------------------------|
D|-/12-12-12-12-12-12-12-12-12-12-12-12-12-12-12-12-15-15-15-15-0-0-0-17-17-17-17-0-0-0-|
A|-/12-12-12-12-12-12-12-12-12-12-12-12-12-12-12-12-15-15-15-15-0-0-0-17-17-17-17-0-0-0-|
D|-/12-12-12-12-12-12-12-12-12-12-12-12-12-12-12-12-15-15-15-15-0-0-0-17-17-17-17-0-0-0-|

e|-------------------------------------------------------------------------------------|
B|-------------------------------------------------------------------------------------|
G|-------------------------------------------------------------------------------------|
D|-/12-12-12-12-12-12-12-12-12-12-12-12-12-12-12-12-10-10-10-10-10-10-10-7-7-7-7-7-7-7-|
A|-/12-12-12-12-12-12-12-12-12-12-12-12-12-12-12-12-10-10-10-10-10-10-10-7-7-7-7-7-7-7-|
D|-/12-12-12-12-12-12-12-12-12-12-12-12-12-12-12-12-10-10-10-10-10-10-10-7-7-7-7-7-7-7-|


VERSE 2

[guitar 1 & 3] 6x
e|---------------------------------------------------------------------------|
B|---------------------------------------------------------------------------|
G|---------------------------------------------------------------------------|
D|-0---3-0--6-5---3----------------------------------------------------------|
A|-0---3-0--6-5---3----------------------------------------------------------|
D|-0---3-0--6-5---3----------------------------------------------------------|

[guitar 2] 2x
e|---------------------------------------------------------------------------|
B|----6----9-8---6-----------------------------------------------------------|
G|-7----7--------------------------------------------------------------------|
D|---------------------------------------------------------------------------|
A|---------------------------------------------------------------------------|
D|---------------------------------------------------------------------------|

VERSE 3


[guitar 1]
e|-12h13-[a bunch]-----------------------------------------------------------|
B|---------------------------------------------------------------------------|
G|---------------------------------------------------------------------------|
D|---------------------------------------------------------------------------|
A|---------------------------------------------------------------------------|
D|---------------------------------------------------------------------------|

[guitar 2] 2x
e|---------------------------------------------------------------------------|
B|---------------------------------------------------------------------------|
G|-5---9---7-----------------------------------------------------------------|
D|-x---x---x-----------------------------------------------------------------|
A|-3---7---5-----------------------------------------------------------------|
D|---------------------------------------------------------------------------|

[guitar 3] 2x
e|---------------------------------------------------------------------------|
B|---------------------------------------------------------------------------|
G|---------------------------------------------------------------------------|
D|-77777777-33333--666-22222222--000--333-55---------------------------------|
A|-77777777-33333--666-22222222--000--333-55---------------------------------|
D|-77777777-33333--666-22222222--000--333-55---------------------------------|

ENDING

4x
e|---------------------------------------------------------------------------|
B|---------------------------------------------------------------------------|
G|---------------------------------------------------------------------------|
D|-5p777---5p777--3----------------------------------------------------------|
A|-5p777---5p777--3----------------------------------------------------------|
D|-5p777---5p777--3----------------------------------------------------------|

BRIDGE 2x

ENDING 2

[guitar 2] 2x
e|---------------------------------------------------------------------------|
B|---------6-----------------------------------------------------------------|
G|-5-77-87---5-3-2-----------------------------------------------------------|
D|-----------------3---------------------------------------------------------|
A|---------------------------------------------------------------------------|
D|---------------------------------------------------------------------------|

[guitar 1 & 3] 2x
e|--------------------------------------------------------------------------------------|
B|--------------------------------------------------------------------------------------|
G|--------------------------------------------------------------------------------------|
D|-/12-12-12-0-0-12-12-12-0-0-15-15-15-15-0-0-17-17-17-0-0-|
A|-/12-12-12-0-0-12-12-12-0-0-15-15-15-15-0-0-17-17-17-0-0-|
D|-/12-12-12-0-0-12-12-12-0-0-15-15-15-15-0-0-17-17-17-0-0-|

e|-------------------------------------------------------------------------------------|
B|-------------------------------------------------------------------------------------|
G|-------------------------------------------------------------------------------------|
D|-/12-12-12-0-0-12-12-12-0-0-10-10-10-0-0-7-7--|
A|-/12-12-12-0-0-12-12-12-0-0-10-10-10-0-0-7-7--|
D|-/12-12-12-0-0-12-12-12-0-0-10-10-10-0-0-7-7--|

3:23

2x
e|---------------------------------------------------------------------------|
B|---------------------------------------------------------------------------|
G|-7h8p0-7h8p0-5h7p0-3h5p3p0h3h5-0h2p0-0h2p0---------------------------------|
D|------------------------------------3--------------------------------------|
A|---------------------------------------------------------------------------|
D|---------------------------------------------------------------------------|

END ON...

e|-----------------------------------------------------------------------------|
B|-----------------------------------------------------------------------------|
G|-----------------------------------------------------------------------------|
D|-0~--------------------------------------------------------------------------|
A|-0~--------------------------------------------------------------------------|
D|-0~--------------------------------------------------------------------------|





Comments


Popular Vaux tabs & chords
Are You With Me Chords
Are You With Me Intro Tabs
Cocaine James Tabs
Identity Theft Tabs
Ride Out Bitch Tabs
Set It To Blow Tabs
Are You With Me Ukulele


Song lyrics



↑ Back to top | Tablatures and chords are parodies/interpretations of the original songs. You may use it for private study, scholarship, research or language learning purposes only
© 2014 AZChords.com Contact us | Privacy policy | DMCA | Add/correct tabs | Request tabs | Top 50 tabs