» » »

Voodoo Chile Tabs (ver.2)

Artists:  A B C D E F G H I J K L M N O P Q R S T U V W X Y Z # 

Voodoo Chile Tabs (ver.2)

Vaughan Stevie Ray
Rating:
0/5 (0 votes)

Hard to play? Try these video lessons and learn fast.
                Mime-Version: 1.0
Content-Transfer-Encoding: 7BIT

                          Voodoo Chile
                       as recorded by SRV
                      written by J. Hendrix
At first you have to mute the strings and break out the ol' wah pedal
listen to the record and get the rythm down good. Then go into...

E|-----------------------------|--------------------------------------------|
B|--5---3----3-----------------|--5--3---3--5-------------------------------|
G|--------4------0--0-2--0----0|-------4------------------------------------|
D|--------------------------2--|----------------5--5sd----------------------|
A|-----------------------------|--------------------------------------------|
E|-----------------------------|--------------------------------------------|
                                                                             
E|-----------------------------|--------------------------------------------|
B|--5---3---3---------------0--|--5--3----3--5----b*10--8-------------------|
G|--------4-----0--0--2-0------|-------4-------------------9----------------|
D|------------------------2----|--------------------------------------------|
A|-----------------------------|--------------------------------------------|
E|-----------------------------|--------------------------------------------|
 

  Main Riff                                                                 
E|-----------------------------------|--------------------------------------|
B|----------------------0--0-0-------|-repeat the last bar a few -----------|
G|-----------2h3p2p0----1--1-1-------|---then go into the verse-------------|
D|----------------------2--2-2-------|--------------------------------------|
A|-----------------------------------|--------------------------------------|
E|-0-------0----------0---------3--0-|--------------------------------------|

Well I'm standin' next to a mountain   chop it down with the edge of my hand
E
Repeat

Pick up the peices make an island   might even raise a little sand
G                                                             main riff
Cause I'm a voodoo chile voodoo chile,  lord knows Im a voodoo chile
            C7                        D7                   E(main Riff)


That is all I have on that song except for a few riffs here and there in
the solo but this should get you through the song.
            
Hard to play? Try these video lessons and learn fast. | Correct




comments powered by Disqus
↑ Back to top | Tablatures and chords are parodies/interpretations of the original songs. You may use it for private study, scholarship, research or language learning purposes only