» » »

Texas Flood Tabs (ver.3)

Artists:  A B C D E F G H I J K L M N O P Q R S T U V W X Y Z # 

Texas Flood Tabs (ver.3)

Vaughan Stevie Ray
Rating:
0/5 (0 votes)

Hard to play? Try these video lessons and learn fast.
                (Intro)
This is just the intro to the song so you'll have
to find the rest somewhere else.

Texas Flood
Key:
^-Bend
<-Pull-Off
<>-Bend and Return
~-Vibrato
^^^^^-Slow Bend

1---------2--4--2----2-2-|--------7-9-7----14-14---14-14-|
2---------2--4--2----4-4-|--------7-9-7----14-14---14-14-|
3---------3--4--3----3-3-|-----4--8-9-8----14-14---14-14-|
4-----4-----------4------|-4-6----------9----------------|
5-4-6--------------------|-------------------------------|
6------------------------|-------------------------------|


1-----2----4<----5^-2---------------------------|
2---2---5<----5<--------------------------2-2---|
3-4^------------------4<>-2---2-----------4-4---|
4--------------------------4---4----------3-3---|
5--------------------------------2-3-4-4--4-4---|
6-----------------------------------------------|


1------------------------------------------------------------------|
2--------12<>-10--------------10------------------------10-12-12<>-|
3-11-11----------11~-11~--11-11----11~--4<>-2--11///-11-11---------|
4------------------------------------------------------------------|
5------------------------------------------------------------------|
6------------------------------------------------------------------|


1------------------------------------------------------------------|
2-12-10------------12^-12^-12<>-12-10----7-7-10^^^^^-10-10---------|
3-------11~--11-11--------------------11-------------------11------|
4------------------------------------------------------------------|
5------------------------------------------------------------------|
6------------------------------------------------------------------|

1----------2------------------2-2-|
2-2-2-5^^^--------------------4-4-|
3-----------4^-4^-2-----------3-3-|
4-------------------4---------4-4-|
5---------------------2-3-4-4-----|
6---------------------------------|

Sorry but that's all I know. 
You can play around with the little riff's 
too lots of different things work.
            
Hard to play? Try these video lessons and learn fast. | Correct




comments powered by Disqus
↑ Back to top | Tablatures and chords are parodies/interpretations of the original songs. You may use it for private study, scholarship, research or language learning purposes only