>
 >
Mary Had A Little Lamb

Mary Had A Little Lamb Guitar Tabs

Vaughan Stevie Ray - Mary Had A Little Lamb chords, tabs, tablatures, lyrics

Guitar lessons | Add/correct | Request | Top 50 tabs Artists:  A B C D E F G H I J K L M N O P Q R S T U V W X Y Z 0-9

Mary Had A Little Lamb Guitar Tabs – Vaughan Stevie Ray

CD, Sheet music, Poster

Do you like Mary Had A Little Lamb? Share with your friends now
TabsTabs v2
MARY HAD A LITTLE LAMB
               As recorded by Stevie Ray Vaughan & Double Trouble
                        (From the 1983 Album TEXAS FLOOD)

Words and Music by Buddy Guy

 Intro
  Q=125
 4/4
  Gtr I
|----------------|--------------|--------------------|---------------|
|----------------|----3-3--3--3-|-----3--------------|----3-3--3--3--|
|----------------|----1-1--1--1-|-----1--------------|----1-1--1--1--|
|------0---------|-2--2-2--2--2-|-----2--------------|-2--2-2--2--2--|
|--0-2---0-2-0---|--------------|--------0h2-2-2-0---|---------------|
|--------------3-|--------------|-0-0--------------3-|---------------|


|---------------------------|----3-3--3--3-|----------------|---------------|
|---------------------------|----2-2--2--2-|----------------|----3-3--3--3--|
|-------------------2h3p2p0-|----2-2--2--2-|----------------|----1-1--1--1--|
|---------2-2-2-5-5---------|----2----2----|------0---------|-2--2-2--2--2--|
|-x-x-2h4-------------------|-0------------|--0-2---0-2-0---|---------------|
|---------------------------|--------------|--------------3-|---------------|


|-------------------------|----------------|-----3-0---------0-0--------|
|-----3-3-3-3-------------|----------------|---------3-0-----3-3--------|
|-----1-1-1-1-------------|----2---2-------|-------------2s4---4-2-0----|
|-----2-2-2-2-------------|------1---------|-------------------------2--|
|-------------0h2-2-2-0-1-|-2------------0-|-(0)------------------------|
|-0-0---------------------|----------2-2---|----------------------------|


|----3-3--3-----|-3---------------|--------------|--------------------|
|----3-3--3-----|-3---------------|----3-3--3--3-|-----3--------------|
|----1-1--1-----|-1---------------|----1-1--1--1-|-----1--------------|
|----2-2--2-----|-2-----0---------|-2--2-2--2--2-|-----2--------------|
|---------------|---0-2---0-2-0---|--------------|--------0h2-2-2-0---|
|-0---------0-0-|---------------3-|--------------|-0-0--------------3-|


|--------------|-----------------------|----3-3--3--3-|-----------------|
|----3-3--3--3-|-----3-3-3-------------|----2-2--2--2-|-----------------|
|----1-1--1--1-|-----1-----------------|----2-2--2--2-|-----------------|
|-2--2-2--2--2-|-2-2-2-2-2-------------|----2----2----|------0----------|
|--------------|-----------0h2-2-2-0---|-0------------|--0-2---0-2-0----|
|--------------|-0-------------------3-|--------------|--------------3--|


|--------------|---0-----0-----|----------------|-----3-0---------0-0-------|
|----3-3--3--3-|------3--------|----------------|---------3-0-----3-3-------|
|----1-1--1--1-|---------------|----2---2-------|-------------2s4---4-2-0---|
|-2--2-2--2--2-|---------------|------1---------|-------------------------2-|
|--------------|-------------0-|-2------------0-|-(0)-----------------------|
|--------------|-0-0-------3---|----------2-2---|---------------------------|


                  1st Verse
|----3-3--3-----||-3--------|-----3-3--3----|----3-3--3----|
|----3-3--3-----||-3--------|-----2-2--2--2-|--2-2-2--2----|
|----1-1--1-----||-1--------|-----2-2--2--2-|--2-2-2--2----|
|----2-2--2-----||-2--------|---2-2----2--2-|--2-2----2----|
|---------------||----------|-0-------------|--------------|
|-0---------0-0-||----------|---------------|------------0-|


|--------------|---------------|----------2-----|----3-3--3-----|
|----3-3--3--3-|-----3-3--3--3-|----------0-----|----2-2--2-----|
|----1-1--1--1-|-----1-1--1--1-|----2-2-2-2-2---|----2-2--2-----|
|-2--2-2--2--2-|-----2-2--2--2-|----1-1-1-1-1---|----2----2---2-|
|--------------|---------------|--2-------------|-0-------------|
|--------------|-0-0-----------|--------------2-|-----------3---|


                2nd Verse
|-------------||-----------|-----3-3--3----|----3-3--3----|
|----3-3--3---||-----------|-----2-2--2--2-|--2-2-2--2----|
|----1-1--1---||-----------|-----2-2--2--2-|--2-2-2--2----|
|----2-2--2---||-14--------|---2-2----2--2-|--2-2----2----|
|-------------||-----------|-0-------------|--------------|
|-0-----------||-----------|---------------|------------0-|


|--------------|---------------|----------2-----|----3-3--3-----|
|----3-3--3--3-|-----3-3--3--3-|----------0-----|----2-2--2-----|
|----1-1--1--1-|-----1-1--1--1-|----2-2-2-2-2---|----2-2--2-----|
|-2--2-2--2--2-|-----2-2--2--2-|----1-1-1-1-1---|----2----2---2-|
|--------------|---------------|--2-------------|-0-------------|
|--------------|-0-0-----------|--------------2-|-----------3---|


                Guitar Solo
                     ~~~~~
|-------------||----10b12------|-----------------------|--12-12-12-12----12-12-|
|----3-3--3---||-3-------------|-10b12r(10)-8----------|-----------------------|
|----1-1--1---||-1-------------|--------------9p7------|-----12-14-14p12-14-14-|
|----2-2--2---||-2-------------|-----------------------|--14-------------------|
|-------------||---------------|-----------------------|-----------------------|
|-0-----------||---------------|-----------------------|-----------------------|


|-----------------------|---------------------------|
|-12-----------------12-|---------------------------|
|-12-----------------12-|-----------------12-14b16==|
|-----14p12-14p12-14----|-14p12--12-14-14-----------|
|-----------------------|---------------------------|
|-----------------------|---------------------------|


                                           ~~
|--------------------12----|-----------15-------------|
|-------12--12-15-16----12-|--12-15-17----17-x--------|
|-(14)r--------------------|-------------------14-14--|
|--------------------------|--------------------------|
|--------------------------|--------------------------|
|--------------------------|--------------------------|


|--------------------------------|----------------12----------|
|----12--------------------------|-------12-15-16----12-15-17-|
|-12-------------------12-14b16==|=(14)r----------------------|
|-------14p12----12-14-----------|----------------------------|
|-------------14-----------------|----------------------------|
|--------------------------------|----------------------------|


                                 ~~
|-15-17b19==(17)r-15-16b17r(16)--------|
|-------------------------------17--17-|
|--------------------------------------|
|--------------------------------------|
|--------------------------------------|
|--------------------------------------|


|-15-17-17b19-17-15------------------------------|
|-------------------17-15------------------------|
|-------------------------16-15-14b15r(14)-12----|
|---------------------------------------------14-|
|------------------------------------------------|
|------------------------------------------------|


   ~~
|------------------------------|-------12----------14-12h14p12----12----12-|
|------------------------------|----------12-15-12-------------15----15----|
|-12-----------------12-14b16==|=(14)r-------------------------------------|
|-----14p12----12-14-----------|-------------------------------------------|
|-----------14-----------------|-------------------------------------------|
|------------------------------|-------------------------------------------|


|-15-12-------------12----------------------|
|-------12-------12----15-------15----------|
|----------14b16----------14b16----14p12----|
|----------------------------------------14-|
|-------------------------------------------|
|-------------------------------------------|


|--------------------------------------------------|
|-12----------------12----14-----------------------|
|-12-14h15-14-12----12----14-12-(12)---------------|
|----------------14----14------------14p12---------|
|------------------------------------------14-(14)-|
|--------------------------------------------------|


|----------------------------------|----------------------------12----|
|-------12----14-12----14-12----14-|-14-15-14-12----12-------12----12-|
|-------12----14-12----14-12----14-|-14-15-14-12----12-14b16----------|
|-12-14----14-------14-------14----|-------------14-------------------|
|----------------------------------|----------------------------------|
|----------------------------------|----------------------------------|


   ~~~~~                                                       ~~~~~~
|----------------------------|----12-----------------------12--------|
|-15b17----15b17r(15)-12--12-|-15----15b17r(15)-15b17r(15)----15b17==|
|----------------------------|---------------------------------------|
|----------------------------|---------------------------------------|
|----------------------------|---------------------------------------|
|----------------------------|---------------------------------------|


    ~~~~~                                   ~~
|-------------------------------|-------------------------12----|
|-(15)r----15-12----------------|-------12-------------12----12-|
|----------------14b16-14p12----|-12-14----12--x-14b16----------|
|----------------------------14-|-------------------------------|
|-------------------------------|-------------------------------|
|-------------------------------|-------------------------------|


|-15b15.5-12----12-------12-----------------------------|
|------------15----15b17----12-15-12--------------------|
|------------------------------------14b16-14-12--------|
|------------------------------------------------14-12--|
|-------------------------------------------------------|
|-------------------------------------------------------|


|------------------------------------------|
|-12-12------------------------------------|
|-12-12------------------------------------|
|-------14p12----12-(12)-12----------12h14-|
|-------------14------------14p12----------|
|---------------------------------15-------|


                                      3rd Verse
|-----------------------|-----------||-----3-3--3--3--|
|-----12-12-14-12-------|-----------||-----2-2--2--2--|
|-----12-12-14-12-------|-----------||-----2-2--2--2--|
|-----12-12-------14-12-|-14--------||---2-2----2--2--|
|-----------------------|-----------||-0--------------|
|-12--------------------|-----------||----------------|


|----3-3--3----|--------------|---------------|----------2-----|
|--2-2-2--2----|----3-3--3--3-|-----3-3--3--3-|----------0-----|
|--2-2-2--2----|----1-1--1--1-|-----1-1--1--1-|----2-2-2-2-2---|
|--2-2-2-------|-2--2-2--2--2-|-----2-2--2--2-|----1-1-1-1-1---|
|--------------|--------------|---------------|--2-------------|
|------------0-|--------------|-0-0-----------|--------------2-|


                                 Outro
|-----3-3--3-----|-------------||-3---------------|--------------|
|-----3-2--2-----|----3-3--3---||-3---------------|----3-3--3--3-|
|---2-2-2--2-----|----1-1--1---||-1---------------|----1-1--1--1-|
|---2-2--------2-|----2-2--2---||-2-----0---------|-2--2-2--2--2-|
|-0--------------|-------------||---0-2---0-2-0---|--------------|
|------------3---|-0-----------||---------------3-|--------------|


|--------------------|--------------|-----------------------|----3-3--3--3--|
|-----3--------------|----3-3--3--3-|-----3-3-3-------------|----2-2--2--2--|
|-----1--------------|----1-1--1--1-|-----1-----------------|----2-2--2--2--|
|-----2--------------|-2--2-2--2--2-|-2-2-2-2-2-------------|----2----2-----|
|--------0h2-2-2-0---|--------------|-----------0h2-2-2-0---|-0-------------|
|-0-0--------------3-|--------------|-0-------------------3-|---------------|


|----------------|--------------|---0-----0-----|----------------|
|----------------|----3-3--3--3-|------3--------|----------------|
|----------------|----1-1--1--1-|---------------|----2---2-------|
|------0---------|-2--2-2--2--2-|---------------|------1---------|
|--0-2---0-2-0---|--------------|-------------0-|-2------------0-|
|--------------3-|--------------|-0-0-------3---|----------2-2---|


|-----3-0---------0-0-------|----3-3--3-----|-3--------*|
|---------3-0-----3-3-------|----3-3--3-----|-3--------*|
|-------------2s4---4-2-0---|----1-1--1-----|-1--------*|
|-------------------------2-|----2-2--2-----|-2--------*|
|-(0)-----------------------|---------------|----------*|
|---------------------------|-0---------0-0-|----------*|


Tablature Legend
----------------
 h   - hammer-on
 p   - pull-off
 b   - bend
 pb  - pre-bend
 r   - bend release (if no number after the r, then release immediately)
 /\  - slide into or out of (from/to "nowhere")
 s   - legato slide
 S   - shift slide
  - natural harmonic
[n]  - artificial harmonic
n(n) - tapped harmonic
 ~   - vibrato
 tr  - trill
 T   - tap
 TP  - trem. picking
 PM  - palm muting
\n/  - tremolo bar dip; n = amount to dip
 \n  - tremolo bar down
 n/  - tremolo bar up
/n\  - tremolo bar inverted dip
 =   - hold bend; also acts as connecting device for hammers/pulls
   - volume swell (louder/softer)
 x   - on rhythm slash represents muted slash
 o   - on rhythm slash represents single note slash





Comments


Popular Vaughan Stevie Ray tabs & chords
Couldn't Stand The Weather 1 Bass Tabs
Change It 1 Tabs
Cold Shot Tabs
Crossfire (Solo) Tabs
Hug You Squeeze You 1 Tabs
I'm Cryin' 1 Tabs
Little Wing Tabs
Texas Flood 1 Tabs
Tightrope 1 Tabs
Tin Pan Alley 1 Tabs


Song lyrics



↑ Back to top | Tablatures and chords are parodies/interpretations of the original songs. You may use it for private study, scholarship, research or language learning purposes only
© 2014 AZChords.com Contact us | Privacy policy | DMCA | Add/correct tabs | Request tabs | Top 50 tabs