» » »

Look At Little Sister Bass tabs (ver.1)

Artists:  A B C D E F G H I J K L M N O P Q R S T U V W X Y Z # 

Look At Little Sister Bass tabs (ver.1)

Vaughan Stevie Ray
Rating:
0/5 (0 votes)

Hard to play? Try these video lessons and learn fast.
                Stevie Ray Vaughan "Look At Little Sister"
As Played By: Tommy Shannon
Top 10 Bad-A§§ Bass Players

Ok RULE NUMBER 1 - Tommy Shannon plays 99% of any SRV song
TUNED 1/2 STEP DOWN! .. I emphisise this because every other
SRV Bass tab I've seen .. doesn't seem to have a clue.
Hell I bought my second Bass just to play SRV so I wouldn't
have to keep re-tuning. So remember, although the other SRV
tabs in the BTA are mostly right .. TUNE 1/2 STEP DOWN.

P.S. The one and only song I've seen that Tommy tunes normal
on is "Pipeline." Play on and have fun.

 Hey-hey-hey-hey Ma-ma ... look
G---------------------------------------------------------------
D---------------------------------------------------------------
A-------------------------2-2-4----------2-2-4----------2-2-4-2-
E-----------------0-0-3-4--------0-0-3-4--------0-0-3-4---------

  hey-hey...                       Look at...
G---------------------------------------------------------------
D-------------------------4-------------4-----------------------
A-7-7-7-7-7-7-----3-4-7-7-------3-4-7-7------------2-2-4--------
E--------------5-5-----------5-5------------0-0-3-4-------------


G---------------------------------------------------------------
D---------4-4-6-------------4-----------------------2-----------
A-2-2-5-6-----------3-4-7-7---7-4---------2-2-4-2-----2-2-2-2-2-
E---------------5-5---------------0-0-3-4---------4-------------

 What about the...                             carried away...
G---------------------------------------------------------------
D---------------------------------------------------------------
A---------2-2-4-2---------2-2-4-2---------2-2-4--7-7--5-5---7-7-
E-0-0-3-4---------0-0-3-4---------0-0-3-4-----------------7-----

                   Look at...                      hey hey..
G---------------------------------------------------------------
D-------------4-------------4-----------------------------------
A-----3-4-7-7-------3-4-7-7------------2-2-4-4---------2-2-4----
E-5-5-----------5-5------------0-0-3-4---------0-0-3-4----------


G---------------------------------------------------------------
D---------4-4-6-------------4-----------------------2-----------
A-2-2-5-6-----------3-4-7-7---7-4---------2-2-4-2-----2-2-2-2-2-
E---------------5-5---------------0-0-3-4---------4-------------


   Shakin like ...
G---------------------------------------------------------------
D---------------------------------------------------------------
A---------------------------------------------------------------
E-0-------------7-------------0-------------7-------------0-----
 
                                               Look at...
G---------------------------------------------------------------
D---------------------------------------4--------------4--------
A-7-7-7-7-7-7-7-7---7---------3-4-7-7-7--------3-4-7-7---7-4----
E-----------------7-------5-5--------------5-5------------------
                       
                          hey hey hey
G---------------------------------------------------------------
D-----------------------------------------4-4-6--------------4--
A---------2-2-4-2---------2-2-4---2-2-5-6------------3-4-7-7----
E-0-0-3-4---------0-0-3-4------------------------5-5------------

                                     Sax Solo..
G---------------------------------------------------------------
D---------------------2--------------------------------2-2------
A---------2-2-4-2-------2-2-2-2-2-----------2-2-4-4-4------4-4-2
E-0-0-3-4---------4-----------------0-0-3-4---------------------
 

G---------------------------------------------------------------
D--------------------------------------------------------4------
A-----------------2-2-4-2------------------------3-4-7-7---7----
E-4-4-4---0-0-3-4----------0-0-2-3-3-3-4-4---5-5----------------


G---------------------------------------------------------------
D-------------4-------------------------------------------------
A-----3-4-7-7---7-4--------------4--------------4------5-6-9-9-9
E-5-5----------------0-0-3-4-7-7----0-0-3-4-7-7----7-7----------


G---------------------------------------------------------------
D------------------4----------------------------2---------------
A--------3-4-7-7-7---7-4----------------4-4-4-----4-2-2-2-2-2---
E-7--5-5------------------0-0-4-4-4-7-7-------------------------

  Guitar Solo...
G---------------------------------------------------------------
D---------------------------------------------------------------
A--------------4-------------------4---------------2-2-2-4-2----
E-0-0-3-4--7-7---7-----0-0-3-4-7-7---7-----0-0-3-4--------------


G---------------------------------------------------------------
D---------------------------------------------------------------
A---------2-2-4-2------------3-4-7-7-9----------3-4-7-7-9-------
E-0-0-3-4---------4------5-5----------------5-5-----------------


G---------------------------------------------------------------
D---------------------------------------------------4-4-6-4-----
A----------2-2-4--------------0--24-2-------2-2-5-6---------6---
E-0-0-3-4------------0-0-3-4----------4-------------------------


G---------------------------------------------------------------
D---------2--24-2------------------------------2----------------
A-----3-4---------4--------------2-2-4-2---------0-2-2-2-2-2----
E-5-5--------------------0-0-3-4--------------------------------

  Shakin like....
G---------------------------------------------------------------
D---------------------------------------------------------------
A---------------------------------------------------------------
E-0---------------7-------------0-------------7---------------0-


G---------------------------------------------------------------
D------------------------------------------------------2--24-2--
A-7-7-7-7-7-7-7-7----7-5---------3-4-7-7-9---------3-4---------4
E------------------7-----7---5-5--------------5-5---------------


G---------------------------------------------------------------
D---------------------------------------------------4-4-6-------
A---------2-2-4-2---------------2-2-4-0-----2-2-5-6-------------
E-0-0-3-4---------4-----0-0-3-4---------------------------------

  Look at Little ....
G---------------------------------------------------------------
D---------2-2-4-------------------------------------------------
A-0-0-3-4------------------0-2-2-4-0-------2-2-2-2-2-2----------
E------------------0-0-3-4--------------------------------------

  What about....
G---------------------------------------------------------------
D---------------------------------------------------------------
A-------------4-4-------------2-2-4------------------4-4--------
E-0-0-3-4-7-7---------0-0-3-4-----------0-0-3-4-7-7-------------

                                         Look at....
G---------------------------------------------------------------
D-----------2-2-------------2-2-4-------------2-2-4-------------
A---------2-------------3-4---------------3-4-------------------
E-0-0-3-4-----------5-5---------------5-5-----------------------


G---------------------------------------------------------------
D---------------------------------------------------4-4-6-4-----
A---------2-2-4-2-4-------------2-2-4-0-----2-2-5-6---------6---
E-0-0-3-4---------------0-0-3-4---------------------------------


G---------------------------------------------------------------
D---------2-2-4-------------------------------------------------
A-----3-4------------------2-2-4-2---7---9---8---7------7----0--
E-5-5--------------0-0-3-4--------------------------------------

Originally Tab'd by -Nyte-
(Transcribed from Original Sheet Music)
            
Hard to play? Try these video lessons and learn fast. | Correct




comments powered by Disqus
↑ Back to top | Tablatures and chords are parodies/interpretations of the original songs. You may use it for private study, scholarship, research or language learning purposes only