» » »

Having Part Of You Tabs (ver.1)

Artists:  A B C D E F G H I J K L M N O P Q R S T U V W X Y Z # 

Having Part Of You Tabs (ver.1)

Vast
Rating:
1/5 (1 vote)

Hard to play? Try these video lessons and learn fast.
                VAST
Having part of you

Intro

e|----------------|
B|----------------|
G|-0--------------|
D|---4------------|
A|----------------|
E|-0--------------|


e|-0-----0--------|----------------|----------------|-----------------|
B|----------------|-3-----3--------|-3-----3--------|-2---2-2/3-2---0-|
G|-----0----0---0-|-----0----0---0-|-----0----0---0-|---2---------2---|
D|---4--------4---|---4--------4---|---4--------4---|-----------------|
A|----------------|-2--------------|-5--------------|-0---------------|
E|-0--------------|----------------|----------------|-----------------|

e|-0-----0--------|----------------|----------------|-----------------|
B|----------------|-3-----3--------|-3-----3--------|-2---2-3-2---0---|
G|-----0----0---0-|-----0----0---0-|-----0----0---0-|---2-------2-----|
D|---4--------4---|---4--------4---|---4--------4---|-----------------|
A|----------------|-2--------------|-5--------------|-0---------------|(x4)
E|-0--------------|----------------|----------------|-----------------|



Chorus 

   Em               Bm               D                A   Asus A Asus2
e|----------------|-2--2-2--2-2-2--|-2--2-2--2-2-2--|----------------|
B|----------------|-3--3-3--3-3-3--|-3--3-3--3-3-3--|-2-2-2/3--2-2-0-|
G|-0--0-0--0-0-0--|-4--4-4--4-4-4--|-2--2-2--2-2-2--|-2-2-2-2--2-2-2-|
D|-2--2-2--2-2-2--|-4--4-4--4-4-4--|----------------|-2-2-2-2--2-2-2-|
A|-2--2-2--2-2-2--|-2--2-2--2-2-2--|----------------|----------------|
E|----------------|----------------|----------------|----------------|


You come into my sunrise
Just to sleep all day
You laugh when we are kissing
You laugh when I'm afraid
You're angry when I'm sweet
You're angry over nothing else
And I'm trying to believe...trying to believe...

(Now, the chorus comes in)

But having part of you
Will fill the whole of me
Let me loose myself
In the emptiness you bring
Getting half of you...it feels like everything
Hmmmmm Hmmmmmmmm

You come into my sunrise
Just to sleep all day
You laugh when we are kissing
You laugh when I'm afraid
I try to touch your face
Your angry over nothing
And I'm trying to believe...trying to believe...

But having part of you
Will fill the whole of me
I always loose myself
In the emptiness you bring
And getting half of you...it feels like everything...
Hmmmmm Hmmmmmmmm

e|----------------|----------------|-----------------|
B|-3-----3--------|-3-----3--------|-2---2-3-2---0---|
G|-----0----0---0-|-----0----0---0-|---2-------2-----|
D|---4--------4---|---4--------4---|-----------------|
A|-2--------------|-5--------------|-0---------------|
E|----------------|----------------|-----------------|

e|-0-----0--------|----------------|----------------|-----------------|
B|----------------|-3-----3--------|-3-----3--------|-2---2-3-2---0---|
G|-----0----0---0-|-----0----0---0-|-----0----0---0-|---2-------2-----|
D|---4--------4---|---4--------4---|---4--------4---|-----------------|
A|----------------|-2--------------|-5--------------|-0---------------|
E|-0--------------|----------------|----------------|-----------------|
            
Hard to play? Try these video lessons and learn fast. | Correct




comments powered by Disqus
↑ Back to top | Tablatures and chords are parodies/interpretations of the original songs. You may use it for private study, scholarship, research or language learning purposes only