» » »

Vashti Bunyan, Diamond Day Tabs (ver.1)

Artists:  A B C D E F G H I J K L M N O P Q R S T U V W X Y Z # 

Diamond Day Tabs (ver.1)

Vashti Bunyan Tabs
 Rating:
3.7/5 (6 votes)
Diamond Day lessons Tabs too difficult? Try these video lessons and learn fast
                NOTE: this song is played on two guitars..(i think) and is layered
with other wind instruments too, but this version i have done here is
designed to be played on one guitar, but i suggest listening to the
song first to get the timing down..okay here it is

Artist : Vashti Bunyan
  Song : Diamond Day

Standard tuning

repeat fill 1 over each line of all the verses

fill 1

e|---------------------------------------------------------|
B|---------------------------------------------------------|
G|-4-2-4-2-------------------------------------------------|
D|---------4-4-2-4-2----------------2----------------------|
A|-------------------5-5-2-5-2----5---5--------------------|
E|-----------------------------5---------------------------|

then, you can either play fill 1 right on through the chorus'..
through the "la la la la lala, la la la lala" parts, or if you want
to add some variation you can use fill 2 during the chorus's.

fill 2

e|-7-5-7-5------------------------7-5-7-5------------------|
B|---------7-7-5-7-5----------------------7--7-5-7-5-------|
G|-------------------7-7-4-7-4-----------------------7-----|
D|-----------------------------7---------------------------|
A|---------------------------------------------------------|
E|---------------------------------------------------------|

both work fine so it's down to you, whichever you prefer the sound of.

thats it, dont forget to rate and comment on it. thanks :)
            
Submit corrections

comments powered by Disqus
↑ Back to top | Vashti Bunyan Tabs for Diamond Day. Lyrics for acoustic guitar and electric guitar. Tablatures and chords are parodies/interpretations of the original songs. You may use it for private study, scholarship, research or language learning purposes only