>
 >
Spring Collection

Spring Collection Bass Tabs

Vapors - Spring Collection chords, tabs, tablatures, lyrics

Guitar lessons | Add/correct | Request | Top 50 tabs Artists:  A B C D E F G H I J K L M N O P Q R S T U V W X Y Z 0-9

Spring Collection Bass Tabs – Vapors

CD, Sheet music, Poster

Do you like Spring Collection? Share with your friends now
Bass Tabs
file. If you feel that the content of this file may be violating   
copyright law, you may not use the information displayed here in any way.    
##----------------------------------------------------------------------##

 Spring Collection
 BASSIST: Steve Smith

 Drums Intro
                                   (A)
G|----------------------------------|----------------------------------|
D|--------------7-6-----------------|--------------7-6-----------------|
A|--7-7-7-7-7-7-----7-7-7-7-7-7---6-|--7-7-7-7-7-7-----7-7-7-7-7-7---6-|
E|------------------------------7---|------------------------------7---|


                                   (B)
G|----------------------------------|----------------------------------|
D|--------------7-6-----------------|--------------7-6-----------------|
A|--7-7-7-7-7-7-----7-7-7-7-7-7---6-|--7-7-7-7-7-7-----7-7-7-7-7-7---6-|
E|------------------------------7---|------------------------------7---|


                                   (C)
G|----------------------------------|----------------------------------|
D|--------------7-6-----------------|--------------7-6-----------------|
A|--7-7-7-7-7-7-----7-7-7-7-7-7---6-|--7-7-7-7-7-7-----7-7-7-7-7-7---6-|
E|------------------------------7---|------------------------------7---|


                                   (D)
G|----------------------------------|----------------------------------|
D|--------------7-6-----------------|--------------7-6-----------------|
A|--7-7-7-7-7-7-----7-7-7-7-7-7---6-|--7-7-7-7-7-7-----7-7-7-7-7-7---6-|
E|------------------------------7---|------------------------------7---|


                                   (E)
G|----------------------------------|----------------------------------|
D|--------------7-6-----------------|--------------7-6-----------------|
A|--7-7-7-7-7-7-----7-7-7-7-7-7---6-|--7-7-7-7-7-7-----7-7-7-7-7-7---6-|
E|------------------------------7---|------------------------------7---|


                                   (F)
G|----------------------------------|----------------------------------|
D|--------------7-6-----------------|----------------------------------|
A|--7-7-7-7-7-7-----7-7-7-7-7-7---6-|------7-6---------------9-6-------|
E|------------------------------7---|-5-5-------7-6-----7-7-------7-6--|


                                   (G)
G|----------------------------------|----------------------------------|
D|--------------7-6-----------------|----------------------------------|
A|--7-7-7-7-7-7-----7-7-7-7-7-7---6-|------7-6---------------9-6-------|
E|------------------------------7---|-5-5-------7-6-----7-7-------7-6--|


                                   (H)
G|----------------------------------|----------------------------------|
D|----------------------------------|----------------------------------|
A|----------------------------------|--7-7-7-7-7-7-7-7-4-4-4-4-4-4-4-4-|
E|--5-5-5-5-5-5-5-5-7-7-7-7-7-7-7-7-|----------------------------------|


                                   (I)
G|----------------------------------|--------------------------6-6-8-8-|
D|----------------------------------|----------------------7-7---------|
A|----------------------------------|----------------------------------|
E|--5-5-5-5-5-5-5-5-2-2-2-2-2-2-2-2-|--7-7-7-7-7-7-7-7-7-7-------------|


                                   (J)
G|----------------------------------|----------------------------------|
D|----------------------------------|----------4--7------------6--9----|
A|-7--7-7--6--6-6--4--4-4--2--2-2---|------7----------------9----------|
E|----------------------------------|-5-5-------------7-7--------------|



                                   (K)
G|----------------------------------|----------------------------------|
D|----------------------------------|----------4--7------------6--9----|
A|-7--7-7--6--6-6--4--4-4--2--2-2---|------7----------------9----------|
E|----------------------------------|-5-5-------------7-7--------------|


                                   (L)
G|----------------------------------|----------------------------------|
D|----9-11-9----9-11-9--------------|----9-11-9----9-11-9--------------|
A|----------------------------------|----------------------------------|
E|-12--------12--------9-9-7--7-7-7-|-12--------12--------9-9-7--7-7-7-|


                                   (M)
G|----------------------------------|----------------------------------|
D|----9-11-9----9-11-9--------------|----9-11-9----9-11-9--------------|
A|----------------------------------|----------------------------------|
E|-12--------12--------9-9-7--7-7-7-|-12--------12--------9-9-7--7-7-7-|
			

                                   (N)
G|----------------------------------|----------------------------------|
D|----------------------------------|----------------------------------|
A|-7--7-7--6--6-6--4--4-4--2--2-2/--|-7--7-7--6--6-6--4--4-4--2--2-2/--|
E|----------------------------------|----------------------------------|


                                   (O)
G|----------------------------------|----------------------------------|
D|----------------------------------|----------------------------------|
A|-7--7-7--6--6-6--4--4-4--2--2-2/--|-7--7-7--6--6-6--4--4-4--2--2-2/--|
E|----------------------------------|----------------------------------|


                                   (P)
G|----------------------------------|----------------------------------|
D|----------------------------------|----------------------------------|
A|-7--7-7--6--6-6--4--4-4--2--2-2---|------7-6---------------9-6-------|
E|----------------------------------|-5-5-------7-6-----7-7-------7-6--|


                                   (Q)
G|----------------------------------|----------------------------------|
D|----------------------------------|----------------------------------|
A|-7--7-7--6--6-6--4--4-4--2--2-2---|------7-6---------------9-6-------|
E|----------------------------------|-5-5-------7-6-----7-7-------7-6--|


                                   (R)
G|----------------------------------|----------------------------------|
D|----------------------------------|----------------------------------|
A|----------------------------------|--7-7-7-7-7-7-7-7-4-4-4-4-4-4-4-4-|
E|--5-5-5-5-5-5-5-5-7-7-7-7-7-7-7-7-|----------------------------------|


                                   (S)
G|----------------------------------|--------------------------6-6-8-8-|
D|----------------------------------|----------------------7-7---------|
A|----------------------------------|----------------------------------|
E|--5-5-5-5-5-5-5-5-2-2-2-2-2-2-2-2-|--7-7-7-7-7-7-7-7-7-7-------------|


                                   (T)
G|----------------------------------|----------------------------------|
D|----------------------------------|----------4--7------------6--9----|
A|-7--7-7--6--6-6--4--4-4--2--2-2---|------7----------------9----------|
E|----------------------------------|-5-5-------------7-7--------------|


                                   (U)
G|----------------------------------|----------------------------------|
D|----------------------------------|----------4--7------------6--9----|
A|-7--7-7--6--6-6--4--4-4--2--2-2---|------7----------------9----------|
E|----------------------------------|-5-5-------------7-7--------------|


                                   (V)
G|----------------------------------|----------------------------------|
D|-------------------4--4-4--4-4-4--|--7--7-6--4-4-4-------------------|
A|--4--4-4--4-4-4-------------------|-----------------7--7-6-6---------|
E|----------------------------------|--------------------------6-7-----|


                                   (W)
G|----------------------------------|----------------------------------|
D|-------------------4--4-4--4-4-4--|--7--7-6--4-4-4-------------------|
A|--4--4-4--4-4-4-------------------|-----------------7--7-6-6---------|
E|----------------------------------|--------------------------6-6-----|


                                   (X)
G|-----------------------------------|
D|----------4-4--6/--9-9-7-7-6-6-4-4-|
A|------6-6--------------------------|
E|--7-7------------------------------|


                                   (Y)
G|----------------------------------|----------------------------------|
D|----------------------------------|----------------------------------|
A|-7--7-7--6--6-6--4--4-4--2--2-4/--|-7--7-7--6--6-6--4--4-4--2--2-4/--|
E|----------------------------------|----------------------------------|

                                   (Z)
G|----------------------------------|----------------------------------|
D|----------------------------------|----------------------------------|
A|-7--7-7--6--6-6--4--4-4--2--2-4/--|-7--7-7--6--6-6--4--4-4--2--2-4/--|
E|----------------------------------|----------------------------------|


                                   (AA)
G|----------------------------------|----------------------------------|
D|----9-11-9----9-11-9--------------|----9-11-9----9-11-9--------------|
A|----------------------------------|----------------------------------|
E|-12--------12--------9-9-7--7-7-7-|-12--------12--------9-9-7--7-7-7-|


                                   (AB)
G|----------------------------------|----------------------------------|
D|----9-11-9----9-11-9--------------|----9-11-9----9-11-9--------------|
A|----------------------------------|----------------------------------|
E|-12--------12--------9-9-7--7-7-7-|-12--------12--------9-9-7--7-7-7-|


                                   (AC)
G|----------------------------------|----------------------------------|
D|----------------------------------|-----------------9--7--6----------|
A|-7--7-7--6--6-6--4--4-4--2--2-2---|-0--0-0-------------------6--7*---|
E|----------------------------------|---------4--4-4-------------------|





Comments


Popular Vapors tabs & chords
Bunkers Bass Tabs
Civic Hall Bass Tabs
Civic Hall 1 Bass Tabs
Daylight Titans Bass Tabs
Lenina Bass Tabs
Magnets Bass Tabs
Turning Japanese Bass Tabs
Turning Japanese 3 Bass Tabs
Trains Chords
I Think Im Turning Japanese Intro Tabs


Song lyrics



↑ Back to top | Tablatures and chords are parodies/interpretations of the original songs. You may use it for private study, scholarship, research or language learning purposes only
© 2014 AZChords.com Contact us | Privacy policy | DMCA | Add/correct tabs | Request tabs | Top 50 tabs