» » »

Vapors, Turning Japanese Bass tabs (ver.1)

Artists:  A B C D E F G H I J K L M N O P Q R S T U V W X Y Z # 

Turning Japanese Bass tabs (ver.1)

Vapors Tabs
 Rating:
3.4/5 (11 votes)
Turning Japanese lessons Tabs too difficult? Try these video lessons and learn fast
                These are the individual parts to the song. Song order found at bottom. Pretty
sure it’s a good tab, maybe not 100%!!! Enjoy!!!

Intro
G:|-----------------------------------------|
D:|-----------------------------------------|
A:|-10-10-10-10-8----8----5----5----8-------|
E:|-----------------------------------------|

Verse
G:|-----------------------------------------------------------|
D:|-----------------------------------------------------------|
A:|-----------------------------------------------------------|
E:|-3-3-3--3-3-3--3-3-3--3-3-3--0-0-0--0-0-0--0-0-0--0-0-0----|

G:|--------------------------|
D:|--------------------------|
A:|--------------------------|
E:|-5----3----0--------------|

Pre Chorus A
G:|-------------------------|-0---------------------|
D:|-------2-0-------2-2-0-0-|-------2-0-------2---0-|
A:|----3-------3-3----------|----3-------3-3--------|
E:|-3-----------------------|-----------------------|

G:|-------------------------------------------------|
D:|-------------------------------------------------|
A:|-5---3h5---3h5---3h5---3h5---3h5---3h5---3h5---3-|
E:|-------------------------------------------------|

Chorus
G:|---------------------------------|---------------------------------------|
D:|---------------------------------|---------------------------------------|
A:|---------------------------------|-5-5-5-5-5-5-5-5-5-5-5-5-5-5-5-5-5-5-5-|
E:|-3-3-3-3-3-3-3-3-3-3-3-3-3-3-3-3-|---------------------------------------|

G:|---------------------------------|---------------------------------------|
D:|-3-3-3-3-3-3-3-3-3-3-3-3-3-3-3-3-|---------------------------------------|
A:|---------------------------------|-3-3-3-3-3-3-3-3-3-3-3-3-3-3-3-3-3-3-3-|
E:|(1-1-1-1-1-1-1-1-1-1-1-1-1-1-1-1)|---------------------------------------|

Post Chorus
G:|---------------------------------|
D:|---------------------------------|
A:|---------------------------------|
E:|-3---3---2---2---1---1---2-------|

Pre Chorus B
G:|-------------------------|
D:|-------2-0-------2-2-0-0-|
A:|----3-------3-3----------|
E:|-3-----------------------|

G:|-------------------------------------------------|
D:|-------------------------------------------------|
A:|-5---3h5---3h5---3h5---3h5---3h5---3h5---3h5---3-|
E:|-------------------------------------------------|

Bridge
G:|-------------------------------------|----------------------------------|
D:|-------------------------------------|----------------------------------|
A:|-------------------------------------|------5-------5-------5--------5--|
E:|------3------3------3------3------3--|----------------------------------|

G:|-------------------------------------|----------------------------------|
D:|------3------3------3------3------3--|----------------------------------|
A:|-------------------------------------|------3--------3-------3-------3--|
E:|(-----1------1------1------1-----1--)|----------------------------------|

G:|---------------------------------|----------------------------------|
D:|---------------------------------|----------------------------------|
A:|---------------------------------|------5-------5-------5--------5--|
E:|-3-3-3-3-3-3-3-3-3-3-3-3-3-3-3-3-|----------------------------------|

G:|---------------------------------|----------------------------------|
D:|-3-3-3-3-3-3-3-3-3-3-3-3-3-3-3-3-|----------------------------------|
A:|---------------------------------|------5--------5-------5-------5--|
E:|(1-1-1-1-1-1-1-1-1-1-1-1-1-1-1-1)|----------------------------------|

Outro
G:|-------------------------|
D:|-------------------------|
A:|-------------------------|
E:|-3---3---2---2---1-1-1-1-|

These are the individual parts to the song. Order below.

ORDER OF PARTS

Intro
Verse x3
Pre Chorus A
Verse
Chorus x2
Post Chorus
Pre Chorus B
Verse
Chorus x2
Bridge
Chorus x5
Post Chorus
Outro
            
Submit corrections

comments powered by Disqus
↑ Back to top | Vapors Bass for Turning Japanese. Lyrics for acoustic guitar and electric guitar. Tablatures and chords are parodies/interpretations of the original songs. You may use it for private study, scholarship, research or language learning purposes only