>
 >
Somehow

Somehow Bass Tabs

Vapors - Somehow chords, tabs, tablatures, lyrics

Guitar lessons | Add/correct | Request | Top 50 tabs Artists:  A B C D E F G H I J K L M N O P Q R S T U V W X Y Z 0-9

Somehow Bass Tabs – Vapors

CD, Sheet music, Poster

Do you like Somehow? Share with your friends now
Bass Tabs
file. If you feel that the content of this file may be violating
copyright law, you may not use the information displayed here in any way.
##---------------------------------------------------------------------##

 Somehow
 BASSIST: Steve Smith


                                   (A)
G|----------------------------------|----------------------------------|
D|----------------------------------|----------------------------------|
A|------7---------------------------|------7---------------------------|
E|--9------3-3-3-3-3-3-3-3----------|--9------3-3-3-3-3-3-3-3----------|

                                   (B)
G|----------------------------------|----------------------------------|
D|----------------------------------|----------------------------------|
A|------7---------------------------|------7---------------------------|
E|--9------3-3-3-3-3-3-3-3----------|--9------3-3-3-3-3-3-3-3----------|


                                   (C)
G|----------------------------------|----------------------------------|
D|--------------------5---5---------|--------------------5---5---------|
A|------------------5---5-----------|------------------5---5-----------|
E|--4----4-4-4-4-3------------------|--4----4-4-4-4-3------------------|


                                   (D)
G|----------------------------------|----------------------------------|
D|--------------------5---5---------|--------------------5---5---------|
A|------------------5---5-----------|------------------5---5-----------|
E|--4----4-4-4-4-3------------------|--4----4-4-4-4-3------------------|


                                   (E)
G|----------------------------------|----------------------------------|
D|--------------------5---5---------|--------------------5---5---------|
A|------------------5---5-----------|------------------5---5-----------|
E|--4----4-4-4-4-3------------------|--4----4-4-4-4-3------------------|


                                   (F)
G|----------------------------------|----------------------------------|
D|--------------------5---5---------|---------------------5-5----------|
A|------------------5---5-----------|-------------------------5-5------|
E|--4----4-4-4-4-3------------------|--4----4-4-4-4-3--3---------------|


                                   (G)
G|----------------------------------|----------------------------------|
D|-------------2-3-------------1-2--|----------------------------------|
A|--3--3-3--3-------2--2-2--2-------|-------------4-5-------------5----|
E|----------------------------------|--5--5-5--5-------3--3-3--3-------|


                                   (H)
G|----------------------------------|----------------------------------|
D|-------------2-3-------------1-2--|----------------------------------|
A|--3--3-3--3-------2--2-2--2-------|-------------4-5-------------5----|
E|----------------------------------|--5--5-5--5-------3--3-3--3-------|


                                   (I)
G|----------------------------------|----------------------------------|
D|-------------4-5-------------3-4--|-------------1-2------------------|
A|--5--5-5--5-------4--4-4--4-------|--2--2-2--2------------------4----|
E|----------------------------------|------------------5--5-5--5-------|


                                   (J)
G|----------------------------------|----------------------------------|
D|-------------4-5-------------3-4--|-------------1-2------------------|
A|--5--5-5--5-------4--4-4--4-------|--2--2-2--2------------------4-5-6|
E|----------------------------------|------------------5--5-5--5-5-----|


                                   (K)
G|----------------------------------|----------------------------------|
D|--------------6-7-----------------|--------------3-4-----------------|
A|--7-7-7-7-7-7-----------------6-7-|--4-4-4-4-4-4------------4-5-4----|
E|------------------7-7-7-7-7-7-----|------------------5--5-5----------|


                                   (L)
G|----------------------------------|----------------------------------|
D|--------------6-7-----------------|--------7-------6-7-9-7-6---------|
A|--7-7-7-7-7-7-----------------6-7-|--------------7-----------7-6-----|
E|------------------7-7-7-7-7-7-----|--5--5----------------------------|


                                   (M)
G|----------------------------------|----------------------------------|
D|--------------6-7-----------------|--------------3-4-----------------|
A|--7-7-7-7-7-7-----------------6-7-|--4-4-4-4-4-4------------4-5-4----|
E|------------------7-7-7-7-7-7-----|------------------5--5-5----------|


                                   (N)
G|----------------------------------|----------------------------------|
D|--------------6-7-----------------|--------7-----7-7-7-7-------------|
A|--7-7-7-7-7-7-----------------6-7-|----------------------7-7-7-7-----|
E|------------------7-7-7-7-7-7-----|--5--5----------------------------|


                                   (O)
G|----------------------------------|----------------------------------|
D|--------------------5---5---------|--------------------5---5---------|
A|------------------5---5-----------|------------------5---5-----------|
E|--4----4-4-4-4-3------------------|--4----4-4-4-4-3------------------|


                                   (Q)
G|----------------------------------|----------------------------------|
D|--------------------5---5---------|--------------------5---5---------|
A|------------------5---5-----------|------------------5---5-----------|
E|--4----4-4-4-4-3------------------|--4----4-4-4-4-3------------------|


                                   (R)
G|----------------------------------|----------------------------------|
D|--------------------5---5---------|--------------------5---5---------|
A|------------------5---5-----------|------------------5---5-----------|
E|--4----4-4-4-4-3------------------|--4----4-4-4-4-3------------------|


                                   (S)
G|----------------------------------|----------------------------------|
D|--------------------5---5---------|---------------------5-5----------|
A|------------------5---5-----------|-------------------------5-5------|
E|--4----4-4-4-4-3------------------|--4----4-4-4-4-3--3---------------|


                                   (T)
G|----------------------------------|----------------------------------|
D|-------------2-3-------------1-2--|----------------------------------|
A|--3--3-3--3-------2--2-2--2-------|-------------4-5-------------5----|
E|----------------------------------|--5--5-5--5-------3--3-3--3-------|


                                   (U)
G|----------------------------------|----------------------------------|
D|-------------2-3-------------1-2--|----------------------------------|
A|--3--3-3--3-------2--2-2--2-------|-------------4-5-------------5----|
E|----------------------------------|--5--5-5--5-------3--3-3--3-------|


                                   (V)
G|----------------------------------|----------------------------------|
D|-------------4-5-------------3-4--|-------------1-2------------------|
A|--5--5-5--5-------4--4-4--4-------|--2--2-2--2------------------4----|
E|----------------------------------|------------------5--5-5--5-------|


                                   (W)
G|----------------------------------|----------------------------------|
D|-------------4-5-------------3-4--|-------------1-2------------------|
A|--5--5-5--5-------4--4-4--4-------|--2--2-2--2------------------4-5-6|
E|----------------------------------|------------------5--5-5--5-5-----|


                                   (X)
G|----------------------------------|----------------------------------|
D|--------------6-7-----------------|--------------3-4-----------------|
A|--7-7-7-7-7-7-----------------6-7-|--4-4-4-4-4-4------------4-5-4----|
E|------------------7-7-7-7-7-7-----|------------------5--5-5----------|


                                   (Y)
G|----------------------------------|----------------------------------|
D|--------------6-7-----------------|--------7-------6-7-9-7-6---------|
A|--7-7-7-7-7-7-----------------6-7-|--------------7-----------7-6-----|
E|------------------7-7-7-7-7-7-----|--5--5----------------------------|


                                   (Z)
G|----------------------------------|----------------------------------|
D|--------------6-7-----------------|--------------3-4-----------------|
A|--7-7-7-7-7-7-----------------6-7-|--4-4-4-4-4-4------------4-5-4----|
E|------------------7-7-7-7-7-7-----|------------------5--5-5----------|


                                   (AA)
G|----------------------------------|----------------------8-6---------|
D|--------------6-7-----------------|--------7-----7-7-7-7-----9-8-----|
A|--7-7-7-7-7-7-----------------6-7-|----------------------------------|
E|------------------7-7-7-7-7-7-----|--5--5----------------------------|


                                   (AB)
G|----------------------------------|-------------------------8-6------|
D|--6---6---6---6---6---6---6---6---|-----------------------------9-8--|
A|----6---6---6---6---6---6---6-----|----------------------------------|
E|--------------------------------6-|-7-7-7-7-7-7-7-7-7-7-7-7----------|


                                   (AC)
G|----------------------------------|-------------------------8-6------|
D|--6---6---6---6---6---6---6---6---|-----------------------------9-8--|
A|----6---6---6---6---6---6---6-----|----------------------------------|
E|--------------------------------6-|-7-7-7-7-7-7-7-7-7-7-7-7----------|


                                   (AD)
G|----------------------------------|----------------------------------|
D|--6---6---6---6---6---6---6---6---|----------------------------------|
A|----6---6---6---6---6---6---6-----|----------------------------------|
E|--------------------------------6-|-7-7-7-7-7-7-7-7-7-7-7-7-7-7-7-7--|


                                   (AE)
G|----------------------------------|----------------------------------|
D|--------------8-9-----------------|--------------5-6-----------------|
A|--9-9-9-9-9-9-----------------8-9-|--6-6-6-6-6-6------------6-7-6----|
E|------------------9-9-9-9-9-9-----|------------------7--7-7----------|


                                   (AF)
G|----------------------------------|----------------------------------|
D|--------------8-9-----------------|--------9-------8-9-11-9-8--------|
A|--9-9-9-9-9-9-----------------8-9-|--------------9 -----------9-8----|
E|------------------9-9-9-9-9-9-----|--7--7----------------------------|


                                   (AG)
G|----------------------------------|----------------------------------|
D|--------------8-9-----------------|--------------5-6-----------------|
A|--9-9-9-9-9-9-----------------8-9-|--6-6-6-6-6-6------------6-7-6----|
E|------------------9-9-9-9-9-9-----|------------------7--7-7----------|


                                   (AH)
G|----------------------------------|----------------------------------|
D|--------------8-9-----------------|--------9-------8-9-11-9-8--------|
A|--9-9-9-9-9-9-----------------8-9-|--------------9 -----------9-8----|
E|------------------9-9-9-9-9-9-----|--7--7----------------------------|


                                   (AI)
G|----------------------------------|----------------------------------|
D|--------------8-9-----------------|--------------5-6-----------------|
A|--9-9-9-9-9-9-----------------8-9-|--6-6-6-6-6-6------------6-7-6----|
E|------------------9-9-9-9-9-9-----|------------------7--7-7----------|


                                   (AJ)
G|----------------------------------|----------------------------------|
D|--------------8-9-----------------|--------9-------8-9-11-9-8--------|
A|--9-9-9-9-9-9-----------------8-9-|--------------9 -----------9-8----|
E|------------------9-9-9-9-9-9-----|--7--7----------------------------|


                                   (AK)
G|----------------------------------|----------------------------------|
D|--------------8-9-----------------|--------------5-6-----------------|
A|--9-9-9-9-9-9-----------------8-9-|--6-6-6-6-6-6------------6-7-6----|
E|------------------9-9-9-9-9-9-----|------------------7--7-7----------|


                                   (AL)
G|----------------------------------|----------------------------------|
D|--------------8-9-----------------|-----------4-4--------------------|
A|--9-9-9-9-9-9-----------------8-9-|----------------4-4--6*-----------|
E|------------------9-9-9-9-9-9-----|--7--7-7--------------------------|





Comments


Popular Vapors tabs & chords
Civic Hall Bass Tabs
Civic Hall 1 Bass Tabs
Isolated Case Bass Tabs
Letter From Hiro Bass Tabs
Magnets Bass Tabs
Sixty Second Interval Bass Tabs
Turning Japanese Bass Tabs
Turning Japanese Chords
Trains Ukulele
Turning Japanese Ukulele


Song lyrics



↑ Back to top | Tablatures and chords are parodies/interpretations of the original songs. You may use it for private study, scholarship, research or language learning purposes only
© 2014 AZChords.com Contact us | Privacy policy | DMCA | Add/correct tabs | Request tabs | Top 50 tabs