>
 >
Magnets

Magnets Bass Tabs

Vapors - Magnets chords, tabs, tablatures, lyrics

Guitar lessons | Add/correct | Request | Top 50 tabs Artists:  A B C D E F G H I J K L M N O P Q R S T U V W X Y Z 0-9

Magnets Bass Tabs – Vapors

CD, Sheet music, Poster

Do you like Magnets? Share with your friends now
Bass Tabs
file. If you feel that the content of this file may be violating
copyright law, you may not use the information displayed here in any way.
##----------------------------------------------------------------------##

 Magnets
 BASSIST: Steve Smith


   Bass Comes In at 01:37          (A)
G|----------------------------------|----------------------------------|
D|----------------------------------|----------------------------------|
A|----------------------------------|----------------------------------|
E|-6-7-7---6-7-7---6-7-7---6-7-7----|-2-3-3---2-3-3---2-3-3---2-3-3----|


                                   (B)
G|----------------------------------|----------------------------------|
D|----------------------------------|----------------------------------|
A|----------------------------------|--------------7777-5555-4444-2222-|
E|-4-5-5---4-5-5---4-5-5---4-5-5----|-0--------------------------------|


                                   (C)
G|----------------------------------|----------------------------------|
D|----------------------------------|----------------------------------|
A|---------5-----------------5------|---------2----------------2-------|
E|-6-7-7-7---7-7-7--6-7-7-7---7-7-7-|-2-3-3-3---3-3-3--2-3-3-3---3-3-3-|


                                   (D)
G|----------------------------------|-7-9----------------------------------|
D|----------------------------------|-----7-9------------------------------|
A|---------4----------------4-------|---------7--7-7--7777-5555-4444-2222--|
E|-4-5-5-5---5-5-5--4-5-5-5---5-5-5-|--------------------------------------|


                                   (E)
G|----------------------------------|----------------------------------|
D|----------------------------------|----------------------------------|
A|---------4--------4-5-7-7---5-4---|---------2--------4-3-5-5---3-2---|
E|-4-5-5-5---5-5-5------------------|-2-3-3-3---3-3-3------------------|


                                   (F)
G|----------------------------------|--------------------------------------|
D|---------4-------4-5-7-7---5-4----|--------------------------------------|
A|-4-5-5-5---5-5-5------------------|-7--5-5-4-5-7-0--7777-5555-4444-2222--|
E|----------------------------------|--------------------------------------|


                                   (G)
G|----------------------------------|----------------------------------|
D|----------------------------------|----------------------------------|
A|---------4--------4-5-7-7---5-4---|---------2--------4-3-5-5---3-2---|
E|-4-5-5-5---5-5-5------------------|-2-3-3-3---3-3-3------------------|


                                   (H)
G|----------------------------------|--------------------------------------|
D|---------4-------4-5-7-7---5-4----|--------------------------------------|
A|-4-5-5-5---5-5-5------------------|-7--5-5-4-5-7-0--7777-5555-4444-2222--|
E|----------------------------------|--------------------------------------|


                                   (I)
G|----------------------------------|----------------------------------|
D|----------------------------------|----------------------------------|
A|---------5-----------------5------|---------2----------------2-------|
E|-6-7-7-7---7-7-7--6-7-7-7---7-7-7-|-2-3-3-3---3-3-3--2-3-3-3---3-3-3-|


                                   (J)
G|----------------------------------|-7-9----------------------------------|
D|----------------------------------|-----7-9------------------------------|
A|---------4----------------4-------|---------7--7-7--7777-5555-4444-2222--|
E|-4-5-5-5---5-5-5--4-5-5-5---5-5-5-|--------------------------------------|


                                   (K)
G|----------------------------------|----------------------------------|
D|----------------------------------|----------------------------------|
A|---------5-----------------5------|---------2----------------2-------|
E|-6-7-7-7---7-7-7--6-7-7-7---7-7-7-|-2-3-3-3---3-3-3--2-3-3-3---3-3-3-|


                                   (D)
G|----------------------------------|-7-9----------------------------------|
D|----------------------------------|-----7-9------------------------------|
A|---------4----------------4-------|---------7--7-7--7777-5555-4444-2222--|
E|-4-5-5-5---5-5-5--4-5-5-5---5-5-5-|--------------------------------------|


                                   (M)
G|----------------------------------|----------------------------------|
D|----------------------------------|----------------------------------|
A|---------5-----------------5------|---------2----------------2-------|
E|-6-7-7-7---7-7-7--6-7-7-7---7-7-7-|-2-3-3-3---3-3-3--2-3-3-3---3-3-3-|


                                   (N)
G|----------------------------------|-7-9----------------------------------|
D|----------------------------------|-----7-9------------------------------|
A|---------4----------------4-------|---------7--7-7--7777-5555-4444-2222--|
E|-4-5-5-5---5-5-5--4-5-5-5---5-5-5-|--------------------------------------|


                                   (O)
G|----------------------------------|----------------------------------|
D|----------------------------------|----------------------------------|
A|---------4--------4-5-7-7---5-4---|---------2--------4-3-5-5---3-2---|
E|-4-5-5-5---5-5-5------------------|-2-3-3-3---3-3-3------------------|


                                   (P)
G|----------------------------------|--------------------------------------|
D|---------4-------4-5-7-7---5-4----|--------------------------------------|
A|-4-5-5-5---5-5-5------------------|-7--5-5-4-5-7-0--7777-5555-4444-2222--|
E|----------------------------------|--------------------------------------|


                                   (Q)
G|----------------------------------|----------------------------------|
D|----------------------------------|----------------------------------|
A|---------4--------4-5-7-7---5-4---|---------2--------4-3-5-5---3-2---|
E|-4-5-5-5---5-5-5------------------|-2-3-3-3---3-3-3------------------|


                                   (R)
G|----------------------------------|--------------------------------------|
D|---------4-------4-5-7-7---5-4----|--------------------------------------|
A|-4-5-5-5---5-5-5------------------|-7--5-5-4-5-7-0--7777-5555-4444-2222--|
E|----------------------------------|--------------------------------------|

                                   (S)
G|----------------------------------|----------------------------------|
D|----------------------------------|----------------------------------|
A|---------4--------4-5-7-7---5-4---|---------2--------4-3-5-5---3-2---|
E|-4-5-5-5---5-5-5------------------|-2-3-3-3---3-3-3------------------|


                                   (T)
G|----------------------------------|--------------------------------------|
D|---------4-------4-5-7-7---5-4----|--------------------------------------|
A|-4-5-5-5---5-5-5------------------|-7--5-5-4-5-7-0--7777-5555-4444-2222--|
E|----------------------------------|--------------------------------------|


                                   (U)
G|----------------------------------|----------------------------------|
D|----------------------------------|----------------------------------|
A|---------4--------4-5-7-7---5-4---|---------2--------4-3-5-5---3-2---|
E|-4-5-5-5---5-5-5------------------|-2-3-3-3---3-3-3------------------|


                                   (V)
G|----------------------------------|--------------------------------------|
D|---------4-------4-5-7-7---5-4----|--------------------------------------|
A|-4-5-5-5---5-5-5------------------|-7--5-5-4-5-7-0--7777-5555-4444-2222--|
E|----------------------------------|--------------------------------------|


                                   (W)
G|----------------------------------|----------------------------------|
D|----------------------------------|----------------------------------|
A|---------5-----------------5------|---------2----------------2-------|
E|-6-7-7-7---7-7-7--6-7-7-7---7-7-7-|-2-3-3-3---3-3-3--2-3-3-3---3-3-3-|


                                   (X)
G|----------------------------------|-7-9----------------------------------|
D|----------------------------------|-----7-9------------------------------|
A|---------4----------------4-------|---------7--7-7--7777-5555-4444-2222--|
E|-4-5-5-5---5-5-5--4-5-5-5---5-5-5-|--------------------------------------|


                                   (Y)
G|----------------------------------|----------------------------------|
D|----------------------------------|----------------------------------|
A|---------5-----------------5------|---------2----------------2-------|
E|-6-7-7-7---7-7-7--6-7-7-7---7-7-7-|-2-3-3-3---3-3-3--2-3-3-3---3-3-3-|


                                   (Z)
G|----------------------------------|-7-9----------------------------------|
D|----------------------------------|-----7-9------------------------------|
A|---------4----------------4-------|---------7--7-7--7777-5555-4444-2222--|
E|-4-5-5-5---5-5-5--4-5-5-5---5-5-5-|--------------------------------------|


                                   (AA)
G|----------------------------------|----------------------------------|
D|----------------------------------|----------------------------------|
A|---------5-----------------5------|---------2----------------2-------|
E|-6-7-7-7---7-7-7--6-7-7-7---7-7-7-|-2-3-3-3---3-3-3--2-3-3-3---3-3-3-|


                                   (AB)
G|----------------------------------|-7-9----------------------------------|
D|----------------------------------|-----7-9------------------------------|
A|---------4----------------4-------|---------7--7-7--7777-5555-4444-2222--|
E|-4-5-5-5---5-5-5--4-5-5-5---5-5-5-|--------------------------------------|


                                   (AC)
G|----------------------------------|----------------------------------|
D|----------------------------------|----------------------------------|
A|---------5-----------------5------|---------2----------------2-------|
E|-6-7-7-7---7-7-7--6-7-7-7---7-7-7-|-2-3-3-3---3-3-3--2-3-3-3---3-3-3-|


                                   (AD)
G|----------------------------------|----------------------------------|
D|----------------------------------|----------------------------------|
A|---------4----------------4-------|----------------------------------|
E|-4-5-5-5---5-5-5--4-5-5-5---5-5-5-|--0*------------------------------|





Comments


Popular Vapors tabs & chords
Civic Hall Bass Tabs
Civic Hall 1 Bass Tabs
Letter From Hiro Bass Tabs
Somehow Bass Tabs
Spring Collection Bass Tabs
Turning Japanese Chords
I Think Im Turning Japanese Intro Tabs
Turning Japanese Tabs
Trains Ukulele
Turning Japanese Ukulele


Song lyrics



↑ Back to top | Tablatures and chords are parodies/interpretations of the original songs. You may use it for private study, scholarship, research or language learning purposes only
© 2014 AZChords.com Contact us | Privacy policy | DMCA | Add/correct tabs | Request tabs | Top 50 tabs