» » »

Vapors, Lenina Bass tabs (ver.1)

Artists:  A B C D E F G H I J K L M N O P Q R S T U V W X Y Z # 

Lenina Bass tabs (ver.1)

Vapors Tabs
 Rating:
4/5 (4 votes)
Lenina lessons Tabs too difficult? Try these video lessons and learn fast
1
                file. If you feel that the content of this file may be violating   
copyright law, you may not use the information displayed here in any way.    
##----------------------------------------------------------------------##

 Lenina
 BASSIST: Steve Smith

 
                                   (A)
G|----------------------------------|----------------------------------|
D|-7-7-6-6-4-4-6-6--7-7-6-6-4-4-6-6-|-7-7-6-6-4-4-2-2-0-0--------------|
A|----------------------------------|---------------------4-4-2-2-0-0--|
E|----------------------------------|----------------------------------|


                                   (B)
G|----------------------------------|----------------------------------|
D|----------------------------------|------------------------5-5-------|
A|-----7------5-7------7------5-7---|-----7------5-7-----7-7-----5-----|
E|-0-0----0-0------0-0----0-0-------|-0-0----0-0-----5-5---------------|


                                   (C)
G|----------------------------------|----------------------------------|
D|----------------------------------|-----------------7-7-6-6-4-4------|
A|-----7------5-7------7------5-7---|-----7------5-7--------------7-7--|
E|-0-0----0-0------0-0----0-0-------|-0-0----0-0-----------------------|


                                   (D)
G|----------------------------------|
D|-----7------7--7----5-------------|
A|-----------------7----5-----------|
E|-5-5----5-5-----------------------|


                                   (E)
G|----------------------------------|----------------------------------|
D|----------------------------------|-----------------7-7-6-6-4-4------|
A|-----7------5-7------7------5-7---|-----7------5-7--------------7-7--|
E|-0-0----0-0------0-0----0-0-------|-0-0----0-0-----------------------|


                                   (F)
G|----------------------------------|
D|-----7------7--7----5-------------|
A|-----------------7----5-----------|
E|-5-5----5-5-----------------------|


                                   (G)
G|----------------------------------|----------------------------------|
D|----------------------------------|----------------------------------|
A|-----6-7------4-5-------7------7--|-----6-7------4-5-------7------7--|
E|-7-7------5-5------0-0-----0-0----|-7-7------5-5------0-0-----0-0----|


                                   (H)
G|----------------------------------|----------------------------------|
D|----------------------------------|----------------------------------|
A|-----6-7------4-5-------7------7--|-----6-7------4-5-------7------7--|
E|-7-7------5-5------0-0-----0-0----|-7-7------5-5------0-0-----0-0----|


                                   (I)
G|----------------------------------|-----------------4----------------|
D|-------6---9-9----------4---7-7---|---------4---4-6---6-4-6-4--------|
A|-7--7-------------5--5------------|-----4-6-------------------6-4----|
E|----------------------------------|-7-7------------------------------|


                                   (J)
G|----------------------------------|------------------4-------6---6---|
D|-------6---9-9----------4---7-7---|---------4----4-6-----6-8---8-----|
A|-7--7-------------5--5------------|-----4-6--------------------------|
E|----------------------------------|-7-7------------------------------|


                                   (K)
G|-8-6---6--------------------------|
D|-----8---8-6-8-6--4-6-4---4-------|
A|------------------------6---6-4-6-|
E|----------------------------------|
Repeat B To K

                                   (L)
G|----------------------------------|----------------------------------|
D|-----------------2----------------|----------------2-2---------------|
A|--4-4-2------2-4---4-2------------|----------2--4-------4--2---------|
E|--------4--4-----------4--4-4-----|-5-5-4-4--------------------------|


                                   (M)
G|----------------------------------|----------------------------------|
D|-----------------2----------------|----------------------------------|
A|--4-4-2------2-4---4-2------------|----------2--4---2-2--4-4--5--7---|
E|--------4--4-----------4--4-4-----|-5-5-4-4--------------------------|
			

                                   (N)
G|----------------------------------|----------------------------------|
D|----------------------------------|----------------------------------|
A|-----7------5-7------7------5-7---|-----7------5-7-----7-------------|
E|-0-0----0-0------0-0----0-0-------|-0-0----0-0-----0-0----7-7--------|


                                   (O)
G|----------------------------------|----------------------------------|
D|----------------------------------|----------------------------------|
A|-----7------5-7------7------5-7---|-----7------5-7-----7-------------|
E|-0-0----0-0------0-0----0-0-------|-0-0----0-0-----0-0----7-7--------|


                                   (P)
G|----------------------------------|----------------------------------|
D|-----------------2----------------|----------------2-2---------------|
A|--4-4-2------2-4---4-2------------|----------2--4-------4--2---------|
E|--------4--4-----------4--4-4-----|-5-5-4-4--------------------------|


                                   (Q)
G|----------------------------------|----------------------------------|
D|-----------------2----------------|----------------------------------|
A|--4-4-2------2-4---4-2------------|----------2--4---2-2--4-4--5--7---|
E|--------4--4-----------4--4-4-----|-5-5-4-4--------------------------|

Repeat B To I
                                   (R)
G|----------------------------------|-----------------4----------------|
D|-------6---9-9----------4---7-7---|---------4---4-6---6-4-6-4--------|
A|-7--7-------------5--5------------|-----4-6-------------------6-4----|
E|----------------------------------|-7-7------------------------------|


                                   (S)
G|----------------------------------|----------------------------------|
D|-------6---9-9----------4---7-7---|-------6---9-9----------4---7-7---|
A|-7--7-------------5--5------------|-7--7-------------5--5------------|
E|----------------------------------|----------------------------------|


                                   (T)
G|----------------------------------|----------------------------------|
D|-------6---9-9----------4---7-7---|----------------------------------|
A|-7--7-------------5--5------------|----------------------------------|
E|----------------------------------|-7-7-7-7-7-7-7-7-7-7-7-7-7-7-7-7--|


                                   (U)
G|----------------------------------|----------------------------------|
D|----------------------------------|----------------------------------|
A|----------------------------------|----------------------------------|
E|-7-7-5-5-4-4-2-2-0*---------------|----------------------------------|
            
Submit corrections

comments powered by Disqus
↑ Back to top | Vapors Bass for Lenina. Lyrics for acoustic guitar and electric guitar. 1 Tablatures and chords are parodies/interpretations of the original songs. You may use it for private study, scholarship, research or language learning purposes only