» » »

Vapors, Jimmie Jones Bass tabs (ver.1)

Artists:  A B C D E F G H I J K L M N O P Q R S T U V W X Y Z # 

Jimmie Jones Bass tabs (ver.1)

Vapors Tabs
 Rating:
4/5 (4 votes)
Jimmie Jones lessons Tabs too difficult? Try these video lessons and learn fast
1
                file. If you feel that the content of this file may be violating   
copyright law, you may not use the information displayed here in any way.    
##----------------------------------------------------------------------##

 Jimmie Jones
 BASSIST: Steve Smith

 
                                   (A)
G|----------------------------------|------------------------12-14-14\-|
D|----------------------------------|----------------------------------|
A|----------------------------------|----------------------------------|
E|----------------------------------|----------------------------------|



                                   (B)
G|----------------------------------|----------------------------------|
D|------------0---------------------|------------0-------------5-4-2---|
A|-5-5-5-5--2---2-0---------2-3-5---|-5-5-5-5--2---2-0-----------------|
E|------------------3-3-3-3---------|------------------3-3-3-3---------|



                                   (C)
G|----------------------------------|----------------------------------|
D|------------0---------------------|------------0-------------5-4-2---|
A|-5-5-5-5--2---2-0---------2-3-5---|-5-5-5-5--2---2-0-----------------|
E|------------------3-3-3-3---------|------------------3-3-3-3---------|


                                   (D)
G|----------------------------------|----------------------------------|
D|------------0---------------------|------------0-------------5-4-2-2-|
A|-5-5-5-5--2---2-0---------2-3-5---|-5-5-5-5--2---2-0-----------------|
E|------------------3-3-3-3---------|------------------3-3-3-3---------|



                                   (E)
G|----------------------------------|----------------------------------|
D|----------------4-5--5--5--5-5-4--|----------------4-5--5--5--5-5-4--|
A|--5--5--5--5-5--------------------|--5--5--5--5-5--------------------|
E|----------------------------------|----------------------------------|



                                   (F)
G|----------------------------------|----------------------------------|
D|----------------4-5--5--5--5-5-4--|----------------4-5--5--5--5-5-4--|
A|--5--5--5--5-5--------------------|--5--5--5--5-5--------------------|
E|----------------------------------|----------------------------------|



                                   (G)
G|----------------------4-4---------|----------------------------------|
D|-------5-5--------5-5------5------|--7-7---5-5---4-4---5--5---7-7----|
A|--7-7-------7---------------------|----------------------------------|
E|----------------------------------|----------------------------------|

Repeat C To G

                                   (H)
G|----------------------------------|----------------------------------|
D|----------------------------------|-------------0----------------0---|
A|-5--5-----5-------5--5-----5------|-----------2---2------------2---2-|
E|------5-7---7-5--------5-7---7-5--|-3--3--3-3--------3--3--3-3-------|


                                   (I)
G|----------------------------------|----------------------------------|
D|----------------------------------|-------------0----------------0---|
A|-5--5-----5-------5--5-----5------|-----------2---2------------2---2-|
E|------5-7---7-5--------5-7---7-5--|-3--3--3-3--------3--3--3-3-------|


                                   (J)
G|----------------------------------|----------------------------------|
D|------------0---------------------|------------0-------------5-4-2---|
A|-5-5-5-5--2---2-0---------2-3-5---|-5-5-5-5--2---2-0-----------------|
E|------------------3-3-3-3---------|------------------3-3-3-3---------|

 Repeat B To J

                                   (K)
G|----------------------------------|----------------------------------|
D|------------2-------------4-------|------------5-------------7-------|
A|----2---4---------4---6-----------|----5---7---------7---9-----------|
E|----------------------------------|----------------------------------|


                                   (L)
G|----------------------------------|----------------------------------|
D|-----2--2--------------6--6-------|-----5--5--------------7--7-------|
A|-2-4------4-0------4-6------6-0---|-5-7------7-0------7-9------9-0---|
E|----------------------------------|----------------------------------|


                                   (M)
G|-------7-7--------------5-5-------|-------4-4--------------5-5-------|
D|-7--9------9-7----5--7-------7-5--|-4--6------6-4----5--7-------7-5--|
A|----------------------------------|----------------------------------|
E|----------------------------------|----------------------------------|
			

                                   (N)
G|----------------------------------|
D|--7-7---5-5---4-4---5--5---7-7----|
A|----------------------------------|
E|----------------------------------|


                                   (O)
G|----------------------------------|----------------------------------|
D|----------------------------------|-------------0----------------0---|
A|-5--5-----5-------5--5-----5------|-----------2---2------------2---2-|
E|------5-7---7-5--------5-7---7-5--|-3--3--3-3--------3--3--3-3-------|


                                   (P)
G|----------------------------------|----------------------------------|
D|----------------------------------|-------------0----------------0---|
A|-5--5-----5-------5--5-----5------|-----------2---2------------2---2-|
E|------5-7---7-5--------5-7---7-5--|-3--3--3-3--------3--3--3-3-------|


                                   (Q)
G|----------------------------------|----------------------------------|
D|----------------------------------|-------------0----------------0---|
A|-5--5-----5-------5--5-----5------|-----------2---2------------2---2-|
E|------5-7---7-5--------5-7---7-5--|-3--3--3-3--------3--3--3-3-------|


                                   (R)
G|----------------------------------|----------------------------------|
D|----------------------------------|-------------0----------------0---|
A|-5--5-----5-------5--5-----5------|-----------2---2------------2---2-|
E|------5-7---7-5--------5-7---7-5--|-3--3--3-3--------3--3--3-3-------|


                                   (S)
G|----------------------------------|----------------------------------|
D|------------0---------------------|------------0-------------5-4-2---|
A|-5-5-5-5--2---2-0---------2-3-5---|-5-5-5-5--2---2-0-----------------|
E|------------------3-3-3-3---------|------------------3-3-3-3---------|


                                   (T)
G|----------------------------------|----------------------------------|
D|------------0---------------------|------------0-------------5-4-2---|
A|-5-5-5-5--2---2-0---------2-3-5---|-5-5-5-5--2---2-0-----------------|
E|------------------3-3-3-3---------|------------------3-3-3-3---------|


                                   (U)
G|----------------------------------|----------------------------------|
D|-7--7--5--4--0--5*----------------|----------------------------------|
A|----------------------------------|----------------------------------|
E|----------------------------------|----------------------------------|
            
Submit corrections

comments powered by Disqus
↑ Back to top | Vapors Bass for Jimmie Jones. Lyrics for acoustic guitar and electric guitar. 1 Tablatures and chords are parodies/interpretations of the original songs. You may use it for private study, scholarship, research or language learning purposes only