>
 >
Isolated Case

Isolated Case Bass Tabs

Vapors - Isolated Case chords, tabs, tablatures, lyrics

Guitar lessons | Add/correct | Request | Top 50 tabs Artists:  A B C D E F G H I J K L M N O P Q R S T U V W X Y Z 0-9

Isolated Case Bass Tabs – Vapors

CD, Sheet music, Poster

Do you like Isolated Case? Share with your friends now
Bass Tabs
file. If you feel that the content of this file may be violating   
copyright law, you may not use the information displayed here in any way.    
##----------------------------------------------------------------------##

 Isolated Case
 BASSIST: Steve Smith

 
                                   (A)
G|----------------------------------|----------------------------------|
D|----------------------------------|----------------------------------|
A|----------------------------------|----------------------------------|
E|--0-0-0-0-0-0-8---0-0-0-0-0-0-7---|--0-0-0-0-0-0-8---8-7-7-7-7-7-7---|


                                   (B)
G|----------------------------------|----------------------------------|
D|----------------------------------|----------------------------------|
A|----------------------------------|----------------------------------|
E|--0-0-0-0-0-0-8---0-0-0-0-0-0-7---|--0-0-0-0-0-0-8---7--7--7--7------|


                                   (C)
G|----------------------------------|----------------------------------|
D|-2-4-2--5-4-2----2--4--2--4-5-4---|-2-4-2--5-4-2-------0--4----------|
A|--------------3-----------------3-|--------------3--2--------2-------|
E|----------------------------------|----------------------------------|


                                   (D)
G|----------------------------------|----------------------------------|
D|-2-4-2--5-4-2----2--4--2--4-5-4---|-2-4-2--5-4-2-------0--4----------|
A|--------------3-----------------3-|--------------3--2--------2-------|
E|----------------------------------|----------------------------------|


                                   (E)
G|----------------------------------|----------------------------------|
D|-2-4-2--5-4-2----2--4--2--4-5-4---|-2-4-2--5-4-2-------0--4----------|
A|--------------3-----------------3-|--------------3--2--------2-------|
E|----------------------------------|----------------------------------|


                                   (F)
G|----------------------------------|----------------------------------|
D|-2-4-2--5-4-2----2--4--2--4-5-4---|-2-4-2--5-4-2-------0--4----------|
A|--------------3-----------------3-|--------------3--2--------2-------|
E|----------------------------------|----------------------------------|


                                   (G)
G|----------------------------------|----------------------------------|
D|-2-4-2--5-4-2----2--4--2--4-5-4---|-2-4-2--5-4-2-------0--4----------|
A|--------------3-----------------3-|--------------3--2--------2-------|
E|----------------------------------|----------------------------------|


                                   (H)
G|--------------------2-4-2-0-------|-----4----------------------------|
D|-------3-5-3-----4----------4-----|--2-----2-----2----------2-3-5----|
A|---------------2------------------|-----------2----2---3-3-----------|
E|--3-3-----------------------------|----------------------------------|


                                   (I)
G|--------------------2-4-2-0-------|-------------------0----2----4----|
D|-------3-5-3-----4----------4-----|--0----2----4---------------------|
A|---------------2------------------|----------------------------------|
E|--3-3-----------------------------|----------------------------------|


                                   (J)
G|------------5-------------7-------|----------------------------------|
D|-------2-------------4------------|----------------------------------|
A|--3--3---3------5--5---5----------|----------------------------------|
E|----------------------------------|-0--------------------------------|


                                   (K)
G|------------5-------------7-------|----------------------------------|
D|-------2-------------4------------|--------------------------12--14\-|
A|--3--3---3------5--5---5----------|----------------------------------|
E|----------------------------------|-0--------------------------------|


                                   (L)
G|----------------------------------|----------------------------------|
D|-2-4-2--5-4-2----2--4--2--4-5-4---|-2-4-2--5-4-2-------0--4----------|
A|--------------3-----------------3-|--------------3--2--------2-------|
E|----------------------------------|----------------------------------|


                                   (M)
G|----------------------------------|----------------------------------|
D|-2-4-2--5-4-2----2--4--2--4-5-4---|-2-4-2--5-4-2-------0--4----------|
A|--------------3-----------------3-|--------------3--2--------2-------|
E|----------------------------------|----------------------------------|
			

                                   (N)
G|----------------------------------|----------------------------------|
D|-2-4-2--5-4-2----2--4--2--4-5-4---|-2-4-2--5-4-2-------0--4----------|
A|--------------3-----------------3-|--------------3--2--------2-------|
E|----------------------------------|----------------------------------|


                                   (O)
G|----------------------------------|----------------------------------|
D|-2-4-2--5-4-2----2--4--2--4-5-4---|-2-4-2--5-4-2-------0--4----------|
A|--------------3-----------------3-|--------------3--2--------2-------|
E|----------------------------------|----------------------------------|


                                   (P)
G|--------------------2-4-2-0-------|-----4----------------------------|
D|-------3-5-3-----4----------4-----|--2-----2-----2----------2-3-5----|
A|---------------2------------------|-----------2----2---3-3-----------|
E|--3-3-----------------------------|----------------------------------|


                                   (Q)
G|--------------------2-4-2-0-------|-------------------0----2----4----|
D|-------3-5-3-----4----------4-----|--0----2----4---------------------|
A|---------------2------------------|----------------------------------|
E|--3-3-----------------------------|----------------------------------|


                                   (R)
G|------------5-------------7-------|----------------------------------|
D|-------2-------------4------------|-------------------12--14--12--14-|
A|--3--3---3------5--5---5----------|----------------------------------|
E|----------------------------------|-0--------------------------------|


                                   (S)
G|------------5-------------7-------|----------------------------------|
D|-------2-------------4------------|----------------------------------|
A|--3--3---3------5--5---5----------|----------------------------------|
E|----------------------------------|-0-0-0-0-0-0-0-0-0-0-0-0-0-0-0-0--|


                                   (T)
G|----------------------------------|---------4------------------------|
D|---0--0-2-4-0---2--2-4-5-4-2-0----|-------4--------------------------|
A|----------------------------------|--2--2-------3---5---7------------|
E|----------------------------------|----------------------------------|


                                   (U)
G|----------------------------------|----------------------------------|
D|---0--0-2-4-0---2--2-4-5-4-2-0----|----------------------------------|
A|----------------------------------|--2-2-2-2-2-2-2-2-2-2-2-2--2--2---|
E|----------------------------------|----------------------------------|


                                   (V)
G|------------5-------------7-------|----------------------------------|
D|-------2-------------4------------|----------------------------------|
A|--3--3---3------5--5---5----------|----------------------------------|
E|----------------------------------|--0-0-0-0-0-0-8---0-0-0-0-0-0-7---|


                                   (W)
G|------------5-------------7-------|----------------------------------|
D|-------2-------------4------------|----------------------------------|
A|--3--3---3------5--5---5----------|----------------------------------|
E|----------------------------------|--0-0-0-0-0-0-8---0-0-0-0-0-0-7---|


                                   (X)
G|------------5-------------7-------|----------12-14--10-12--9-11-7\---|
D|-------2-------------4------------|----------------------------------|
A|--3--3---3------5--5---5----------|----------------------------------|
E|----------------------------------|-0--------------------------------|


                                   (Y)
G|----------------------------------|----------------------------------|
D|-2-4-2--5-4-2----2--4--2--4-5-4---|-2-4-2--5-4-2-------0--4----------|
A|--------------3-----------------3-|--------------3--2--------2-------|
E|----------------------------------|----------------------------------|

                                   (Z)
G|----------------------------------|----------------------------------|
D|-2-4-2--5-4-2----2--4--2--4-5-4---|-2-4-2--5-4-2-------0--4----------|
A|--------------3-----------------3-|--------------3--2--------2-------|
E|----------------------------------|----------------------------------|


                                   (AA)
G|----------------------------------|----------------------------------|
D|-2-4-2--5-4-2----2--4--2--4-5-4---|-2-4-2--5-4-2-------0--4----------|
A|--------------3-----------------3-|--------------3--2--------2-------|
E|----------------------------------|----------------------------------|


                                   (AB)
G|----------------------------------|----------------------------------|
D|-2-4-2--5-4-2----2--4--2--4-5-4---|-2-4-2--5-4-2-------0--4----------|
A|--------------3-----------------3-|--------------3--2--------2-------|
E|----------------------------------|----------------------------------|


                                   (AC)
G|----------------------------------|----------------------------------|
D|----------------------------------|----------------------------------|
A|----------------------------------|----------------------------------|
E|--0-0-0-0-0-0-8---0-0-0-0-0-0-8---|--0-0-0-0-0-0-8---8-7-7-7-7-7-7---|


                                   (AD)
G|----------------------------------|----------------------------------|
D|----------------------------------|----------------------------------|
A|----------------------------------|----------------------------------|
E|--0-0-0-0-0-0-8---0-0-0-0-0-0-8---|--0-0-0-0-0-0-8---8-7-7-7-7-7-7---|


                                   (AE)
G|----------------------------------|----------------------------------|
D|----------------------------------|----------------------------------|
A|----------------------------------|----------------------------------|
E|--0-0-0-0-0-0-8---0-0-0-0-0-0-8---|--0-0-0-0-0-0-8---7--7--7--7*-----|





Comments


Popular Vapors tabs & chords
America Bass Tabs
Daylight Titans Bass Tabs
Letter From Hiro Bass Tabs
Spring Collection Bass Tabs
Trains Bass Tabs
Turning Japanese 3 Bass Tabs
Turning Japanese Chords
I Think Im Turning Japanese Intro Tabs
Turning Japanese 1 Tabs
Turning Japanese Ukulele


Song lyrics



↑ Back to top | Tablatures and chords are parodies/interpretations of the original songs. You may use it for private study, scholarship, research or language learning purposes only
© 2014 AZChords.com Contact us | Privacy policy | DMCA | Add/correct tabs | Request tabs | Top 50 tabs