>
 >
Im A Fighter

Im A Fighter Guitar Tabs

Van Zant - Im A Fighter chords, tabs, tablatures, lyrics

Guitar lessons | Add/correct | Request | Top 50 tabs Artists:  A B C D E F G H I J K L M N O P Q R S T U V W X Y Z 0-9

Im A Fighter Guitar Tabs – Van Zant

CD, Sheet music, Poster

Do you like Im A Fighter? Share with your friends now
Bass TabsTabs
-----------------------------------------------------------------------------
                      I'm A Fighter - Van Zant (GUITAR)
                       
-----------------------------------------------------------------------------

Tuning: Standard

=============================================================================

Guitar

Clean guitar intro



     H        Q    E  S  S    S E  H        Q    S    E  E  E  H        E   
E||------------------------|-----------------------|-----------------------|
B||------------------------|-----------------------|-----------------------|
G||-------------------7s-9-|----9--7--------L------|--5-----5--4--------L--|
D||-------------------5s-7-|----7--5--------L------|--5-----5--5--------L--|
A||------------------------|-----------------------|-----------------------|
E||------------------------|-----------------------|-----------------------|


  E  E  E  Q    E  Q       E  E  E  H        S S    E  E  E  H        S S  
------------------------|--0--0-----0--------L---|------------------------|
------------------------|--5--5-----5--------L---|------------------------|
--2--4--5--4----5--7----|--5--5-----4--------L-x-|--9--9-----7--------L-x-|
--3--5--5--5----5--5----|----------------------x-|--7--7-----7--------L-x-|
------------------------|----------------------x-|--0--0-----0--------L-x-|
------------------------|--5--5-----5--------L---|------------------------|


  S Q    H        S S S    E  E  E  H        S S    E  E  E  H        E   
------------------------|------------------------|-----------------------|
----0----0--------L-0---|------------------------|-----------------------|
--x-5----4--------L-4-x-|--9-----9--7--------L-x-|--4--4--5--------------|
--x-5----5--------L-5-x-|--7-----7--7--------L-x-|--5--5--5--------------|
--x-0----0--------L-0-x-|--0-----0--0--------L-x-|-----------0-----------|
------------------------|------------------------|-----------------------|



=============================================================================
=============================================================================
                               


                                                                        
Rhythm guitar



     W                   W                   W                 
E||-------------------|-------------------|-------------------|
B||-------------------|-------------------|-------------------|
G||-------------------|-------------------|-------------------|
D||-------------------|-------------------|-------------------|
A||-------------------|-------------------|-------------------|
E||-------------------|-------------------|-------------------|


  W                   W                   W                   W                 
-------------------|-------------------|-------------------|-------------------|
-------------------|-------------------|-------------------|-------------------|
-------------------|-------------------|-------------------|-------------------|
-------------------|-------------------|-------------------|-------------------|
-------------------|-------------------|-------------------|-------------------|
-------------------|-------------------|-------------------|-------------------|


  W                   Q    E  H        E     W                 
-------------------|----------------------|-------------------|
-------------------|----------------------|-------------------|
-------------------|----------2--------L--|--L----------------|
-------------------|----------2--------L--|--L----------------|
-------------------|----------0--------L--|--L----------------|
-------------------|----------------------|-------------------|


  E  E  E  H        E     E  E  E  H        E     E  E  E  H        E   
-----------------------|-----------------------|-----------------------|
-----------------------|-----------------------|-----------------------|
--9--9--9--7-----------|--5--5--5--4-----------|--9--9--9--7-----------|
--7--7--7--7-----------|--5--5--5--5-----------|--7--7--7--7-----------|
-----------------------|-----------------------|-----------------------|
-----------------------|-----------------------|-----------------------|


  E  E  E  H        E     E  E  E  H        E     E  E  E  H        E   
-----------------------|-----------------------|-----------------------|
-----------------------|-----------------------|-----------------------|
--4--4--5--2-----------|--9--9--9--7-----------|--5--5--5--4-----------|
--5--5--5--2-----------|--7--7--7--7-----------|--5--5--5--5-----------|
-----------------------|-----------------------|-----------------------|
-----------------------|-----------------------|-----------------------|


  E  E  E  H        E     E  E  E  H        E     H        E  S  S S  S  S  S  
-----------------------|-----------------------|------------------------------|
-----------------------|-----------------------|------------------------------|
--9--9--9--7-----------|--4--4--5--2--------L--|--L---------------------------|
--7--7--7--7-----------|--5--5--5--2--------L--|--L-----------2p-0------------|
-----------------------|-----------0--------L--|--L----------------3h-5p-3p-0-|
-----------------------|-----------------------|------------------------------|


  E  S S S S S S    E  E  E  H        E     E  E  E  H        E   
-----------------|-----------------------|-----------------------|
-----------------|-----------------------|-----------------------|
-----------------|--9--9--9--7-----------|--5--5--5--4-----------|
-----2-0---------|--7--7--7--7-----------|--5--5--5--5-----------|
---------3-5-3-0-|-----------------------|-----------------------|
-----------------|-----------------------|-----------------------|


  E  E  E  H        E     E  E  E  H        E     E  E  E  H        E   
-----------------------|-----------------------|-----------------------|
-----------------------|-----------------------|-----------------------|
--9--9--9--7-----------|--4--4--5--2-----------|--9--9--9--7-----------|
--7--7--7--7-----------|--5--5--5--2-----------|--7--7--7--7-----------|
-----------------------|-----------------------|-----------------------|
-----------------------|-----------------------|-----------------------|


  E  E  E  H        E     E  E  E  H        E     E  E  E  H        E   
-----------------------|-----------------------|-----------------------|
-----------------------|-----------------------|-----------------------|
--5--5--5--4-----------|--9--9--9--7-----------|--4--4--5--2--------L--|
--5--5--5--5-----------|--7--7--7--7-----------|--5--5--5--2--------L--|
-----------------------|-----------------------|-----------0--------L--|
-----------------------|-----------------------|-----------------------|


                                   PM   PM PM PM   PM PM PM   PM PM PM   PM PM  
  W                   Q    Q       S  S S  S  S  S S  S  S  S S  S  S  S S  S   
-------------------|------------|----------------------------------------------|
-------------------|------------|----------------------------------------------|
--L----------------|--L---------|----------------------------------------------|
--L----------------|--L---------|----------------------------------------------|
--L----------------|--L---------|--0----0--0--0----0--0--0----0--0--0----0--0--|
-------------------|------------|----------------------------------------------|


  PM   PM PM PM   PM PM PM   PM PM PM   PM PM  
  S  S S  S  S  S S  S  S  S S  S  S  S S  S   
----------------------------------------------|
----------------------------------------------|
----------------------------------------------|
----------------------------------------------|
--0----0--0--0----0--0--0----0--0--0----0--0--|
----------------------------------------------|


  PM   PM PM PM   PM PM PM   PM PM PM   PM PM  
  S  S S  S  S  S S  S  S  S S  S  S  S S  S   
----------------------------------------------|
----------------------------------------------|
----------------------------------------------|
----------------------------------------------|
--0----0--0--0----0--0--0----0--0--0----0--0--|
----------------------------------------------|


  PM   PM PM PM   PM PM PM   PM PM PM   PM PM                          
  S  S S  S  S  S S  S  S  S S  S  S  S S  S     E  E  E  H        E   
----------------------------------------------|-----------------------|
----------------------------------------------|-----------------------|
----------------------------------------------|--9--9--9--7-----------|
----------------------------------------------|--7--7--7--7-----------|
--0----0--0--0----0--0--0----0--0--0----0--0--|-----------------------|
----------------------------------------------|-----------------------|


  E  E  E  H        E     E  E  E  H        E     E  E  E  Q.     E  E   
-----------------------|-----------------------|------------------------|
-----------------------|-----------------------|------------------------|
--5--5--5--4-----------|--9--9--9--7-----------|--4--4--5--2------------|
--5--5--5--5-----------|--7--7--7--7-----------|--5--5--5--2------------|
-----------------------|-----------------------|-----------0------0--2--|
-----------------------|-----------------------|------------------------|


  Q     Q    Q    Q       Q.     Q.     E  E     Q     Q    Q    Q     
--------3---------3----|----------------------|--------3---------3----|
--------3---------3----|--3-------------------|--------3---------3----|
--------0---------0----|--2------2------------|--------0----0----0----|
-------------0---------|--0------2------------|-------------0---------|
--3~-------------------|---------0------0--2--|--3~-------------------|
-------------3---------|----------------------|-------------3---------|


  S S S S S S S S S S S S S S E     Q     Q    Q    Q     
---------------------------------|--------3---------3----|
---------------------------------|--------3---------3----|
---------------------------------|--------0---------0----|
--2---2-2-2---2-2-2---2-2-2------|-------------0---------|
--0---0-0-0---0-0-0---0-0-0---2--|--3~-------------------|
---------------------------------|-------------3---------|


  Q.     Q.     E  E     Q     Q    Q    Q     
----------------------|--------3---------3----|
--3-------------------|--------3---------3----|
--2------2------------|--------0---------0----|
--0------2------------|-------------0---------|
---------0------0--2--|--3~-------------------|
----------------------|-------------3---------|


     PM PM    PM PM    PM PM    PM PM                        
  E  S  S  E  S  S  E  S  S  E  S  S     Q     H.            
--------------------------------------|---------------------|
--------------------------------------|---------------------|
--9--------9--------9--------9--------|--9------------------|
--9--9--9--9--9--9--9--9--9--9--9--9--|--9------------------|
--7--7--7--7--7--7--7--7--7--7--7--7--|--7\-----------------|
-----0--0-----0--0-----0--0-----0--0--|--------0------------|


  E  E  E  H        E     E  E  E  H        E     E  E  E  H        E   
-----------------------|-----------------------|-----------------------|
-----------------------|-----------------------|-----------------------|
--9--9--9--7-----------|--5--5--5--4-----------|--9--9--9--7-----------|
--7--7--7--7-----------|--5--5--5--5-----------|--7--7--7--7-----------|
-----------------------|-----------------------|-----------------------|
-----------------------|-----------------------|-----------------------|


  E  E  E  H        E     E  E  E  H        E     E  E  E  H        E   
-----------------------|-----------------------|-----------------------|
-----------------------|-----------------------|-----------------------|
--4--4--5--2-----------|--9--9--9--7-----------|--5--5--5--4-----------|
--5--5--5--2-----------|--7--7--7--7-----------|--5--5--5--5-----------|
-----------------------|-----------------------|-----------------------|
-----------------------|-----------------------|-----------------------|


  E  E  E  H        E     E  E  E  Q.     Q        W                 
-----------------------|------------------------|-------------------|
-----------------------|------------------------|-------------------|
--9--9--9--7-----------|--4--4--5--2------------|--2----------------|
--7--7--7--7-----------|--5--5--5--2------------|--2----------------|
-----------------------|-----------0------------|--0----------------|
-----------------------|------------------3b----|-------------------|


  W                   Q    Q    Q    Q        H        Q    Q        
-------------------|-----------------------|------------------------|
-------------------|-----------------------|------------------------|
--L----------------|------------5----------|--2--------2------------|
--L----------------|--3----3----5----------|--2--------2------------|
--L----------------|--3----3----3----------|--0--------0------------|
-------------------|--1----1---------3b----|----------------3brb----|


  W                   W                   Q    Q    Q    Q      
-------------------|-------------------|-----------------------|
-------------------|-------------------|-----------------------|
--2----------------|--L----------------|------------5----------|
--2----------------|--L----------------|--3----3----5----------|
--0----------------|--L----------------|--3----3----3----------|
-------------------|-------------------|--1----1---------3b----|


  W                   Q    Q    Q    Q       Q.     Q.     E  E   
-------------------|-------3---------3----|----------------------|
-------------------|-------3---------3----|--3-------------------|
--2----------------|-------0---------0----|--2------2------------|
--2----------------|----------------------|--0------2------------|
--0----------------|--3-------------------|---------0------0--2--|
-------------------|------------3---------|----------------------|


  Q     Q    Q    Q       S S S S S S S S S S S S S S E   
--------3---------3----|---------------------------------|
--------3---------3----|---------------------------------|
--------0---------0----|---------------------------------|
-------------0---------|--2---2-2-2---2-2-2---2-2-2------|
--3~-------------------|--0---0-0-0---0-0-0---0-0-0---2--|
-------------3---------|---------------------------------|


  Q     Q    Q    Q       Q.     Q.     E  E     Q     Q    Q    Q     
--------3---------3----|----------------------|--------3---------3----|
--------3---------3----|--3-------------------|--------3---------3----|
--------0---------0----|--2------2------------|--------0---------0----|
-------------0---------|--0------2------------|-------------0---------|
--3~-------------------|---------0------0--2--|--3~-------------------|
-------------3---------|----------------------|-------------3---------|


     PM PM    PM PM    PM PM    PM PM                        
  E  S  S  E  S  S  E  S  S  E  S  S     Q     H.            
--------------------------------------|---------------------|
--------------------------------------|---------------------|
--9--------9--------9--------9--------|--9------------------|
--9--9--9--9--9--9--9--9--9--9--9--9--|--9------------------|
--7--7--7--7--7--7--7--7--7--7--7--7--|--7\-----------------|
-----0--0-----0--0-----0--0-----0--0--|--------0------------|


  PM   PM PM PM   PM PM PM   PM PM PM   PM PM  
  S  S S  S  S  S S  S  S  S S  S  S  S S  S   
----------------------------------------------|
----------------------------------------------|
----------------------------------------------|
----------------------------------------------|
--0----0--0--0----0--0--0----0--0--0----0--0--|
----------------------------------------------|


  PM   PM PM PM   PM PM PM   PM PM PM   PM PM  
  S  S S  S  S  S S  S  S  S S  S  S  S S  S   
----------------------------------------------|
----------------------------------------------|
----------------------------------------------|
----------------------------------------------|
--0----0--0--0----0--0--0----0--0--0----0--0--|
----------------------------------------------|


  PM   PM PM PM   PM PM PM   PM PM PM   PM PM  
  S  S S  S  S  S S  S  S  S S  S  S  S S  S   
----------------------------------------------|
----------------------------------------------|
----------------------------------------------|
----------------------------------------------|
--0----0--0--0----0--0--0----0--0--0----0--0--|
----------------------------------------------|


  PM   PM PM PM   PM PM PM   PM PM PM   PM PM  
  S  S S  S  S  S S  S  S  S S  S  S  S S  S   
----------------------------------------------|
----------------------------------------------|
----------------------------------------------|
----------------------------------------------|
--0----0--0--0----0--0--0----0--0--0----0--0--|
----------------------------------------------|


  PM   PM PM PM   PM PM PM   PM PM PM   PM PM  
  S  S S  S  S  S S  S  S  S S  S  S  S S  S   
----------------------------------------------|
----------------------------------------------|
----------------------------------------------|
----------------------------------------------|
--0----0--0--0----0--0--0----0--0--0----0--0--|
----------------------------------------------|


  PM   PM PM PM   PM PM PM   PM PM PM   PM PM  
  S  S S  S  S  S S  S  S  S S  S  S  S S  S   
----------------------------------------------|
----------------------------------------------|
----------------------------------------------|
----------------------------------------------|
--0----0--0--0----0--0--0----0--0--0----0--0--|
----------------------------------------------|


  PM   PM PM PM   PM PM PM   PM PM PM   PM PM  
  S  S S  S  S  S S  S  S  S S  S  S  S S  S   
----------------------------------------------|
----------------------------------------------|
----------------------------------------------|
----------------------------------------------|
--0----0--0--0----0--0--0----0--0--0----0--0--|
----------------------------------------------|


  PM   PM PM PM   PM PM PM   PM PM PM   PM PM                          
  S  S S  S  S  S S  S  S  S S  S  S  S S  S     Q     Q    Q    Q     
----------------------------------------------|--------3---------3----|
----------------------------------------------|--------3---------3----|
----------------------------------------------|--------0----0----0----|
----------------------------------------------|-------------0---------|
--0----0--0--0----0--0--0----0--0--0----0--0--|--3~-------------------|
----------------------------------------------|-------------3---------|


  Q.     Q.     E  E     Q     Q    Q    Q     
----------------------|--------3---------3----|
--3-------------------|--------3---------3----|
--2------2------------|--------0----0----0----|
--0------2------------|-------------0---------|
---------0------0--2--|--3~-------------------|
----------------------|-------------3---------|


  S S S S S S S S S S S S S S E     Q     Q    Q    Q     
---------------------------------|--------3---------3----|
---------------------------------|--------3---------3----|
---------------------------------|--------0---------0----|
--2---2-2-2---2-2-2---2-2-2------|-------------0---------|
--0---0-0-0---0-0-0---0-0-0---2--|--3~-------------------|
---------------------------------|-------------3---------|


  Q.     Q.     E  E     Q     Q    Q    Q     
----------------------|--------3---------3----|
--3-------------------|--------3---------3----|
--2------2------------|--------0----0----0----|
--0------2------------|-------------0---------|
---------0------0--2--|--3~-------------------|
----------------------|-------------3---------|


     PM PM    PM PM    PM PM    PM PM                        
  E  S  S  E  S  S  E  S  S  E  S  S     Q     H.            
--------------------------------------|---------------------|
--------------------------------------|---------------------|
--9--------9--------9--------9--------|--9------------------|
--9--9--9--9--9--9--9--9--9--9--9--9--|--9------------------|
--7--7--7--7--7--7--7--7--7--7--7--7--|--7\-----------------|
-----0--0-----0--0-----0--0-----0--0--|--------0------------|


  E  E  E  H        E     E  E  E  H        E     E  E  E  H        E   
-----------------------|-----------------------|-----------------------|
-----------------------|-----------------------|-----------------------|
--9--9--9--7-----------|--5--5--5--4-----------|--9--9--9--7-----------|
--7--7--7--7-----------|--5--5--5--5-----------|--7--7--7--7-----------|
-----------------------|-----------------------|-----------------------|
-----------------------|-----------------------|-----------------------|


  E  E  E  H        E     E  E  E  H        E     E  E  E  H        E   
-----------------------|-----------------------|-----------------------|
-----------------------|-----------------------|-----------------------|
--4--4--5--2-----------|--9--9--9--7-----------|--5--5--5--4-----------|
--5--5--5--2-----------|--7--7--7--7-----------|--5--5--5--5-----------|
-----------0-----------|-----------------------|-----------------------|
-----------------------|-----------------------|-----------------------|


  E  E  E  H        E     E  E  E  H        E     E  E  E  H        E   
-----------------------|-----------------------|-----------------------|
-----------------------|-----------------------|-----------------------|
--9--9--9--7-----------|--4--4--5--2-----------|--9--9--9--7-----------|
--7--7--7--7-----------|--5--5--5--2-----------|--7--7--7--7-----------|
-----------------------|-----------0-----------|-----------------------|
-----------------------|-----------------------|-----------------------|


  E  E  E  H        E     E  E  E  H        E     E  E  E  H        E   
-----------------------|-----------------------|-----------------------|
-----------------------|-----------------------|-----------------------|
--5--5--5--4-----------|--9--9--9--7-----------|--4--4--5--2-----------|
--5--5--5--5-----------|--7--7--7--7-----------|--5--5--5--2-----------|
-----------------------|-----------------------|-----------------------|
-----------------------|-----------------------|-----------------------|


  E  E  E  H        E     E  E  E  H        E     E  E  E  H        E   
-----------------------|-----------------------|-----------------------|
-----------------------|-----------------------|-----------------------|
--9--9--9--7-----------|--5--5--5--4-----------|--9--9--9--7-----------|
--7--7--7--7-----------|--5--5--5--5-----------|--7--7--7--7-----------|
-----------------------|-----------------------|-----------------------|
-----------------------|-----------------------|-----------------------|


  E  E  E  H        E     E  E  E  H        E     E  E  E  H        E   
-----------------------|-----------------------|-----------------------|
-----------------------|-----------------------|-----------------------|
--4--4--5--2-----------|--9--9--9--7-----------|--5--5--5--4-----------|
--5--5--5--2-----------|--7--7--7--7-----------|--5--5--5--5-----------|
-----------------------|-----------------------|-----------------------|
-----------------------|-----------------------|-----------------------|


  E  E  E  H        E     E  E  E  H        E     E  E  E  H        E   
-----------------------|-----------------------|-----------------------|
-----------------------|-----------------------|-----------------------|
--9--9--9--7-----------|--4--4--5--2-----------|--9--9--9--7-----------|
--7--7--7--7-----------|--5--5--5--2-----------|--7--7--7--7-----------|
-----------------------|-----------------------|-----------------------|
-----------------------|-----------------------|-----------------------|


  E  E  E  H        E     E  E  E  H        E    
-----------------------|-----------------------||
-----------------------|-----------------------||
--5--5--5--4-----------|--9--9--9--7-----------||
--5--5--5--5-----------|--7--7--7--7-----------||
-----------------------|-----------------------||
-----------------------|-----------------------||





=================================================================
=================================================================




Lead




  H        Q    E  E     Q    Q      Q    Q       W                 
----------------------|------------------------|-------------------|
----------------------|------------------------|-------------------|
----------------9--7--|--5----5----------------|-------------------|
----------------------|------------/10----9----|--7----------------|
----------------------|------------------------|-------------------|
----------------------|------------------------|-------------------|


  W                   H        Q    E  E     Q    Q      Q    Q     
-------------------|----------------------|------------------------|
-------------------|----------------------|------------------------|
-------------------|----------------9--7--|--5----5----------------|
-------------------|----------------------|------------/10----9----|
-------------------|----------------------|------------------------|
-------------------|----------------------|------------------------|


                                                            SH        
  W                   W                   H        E   E    E    S S  
-------------------|-------------------|-----------------------------|
-------------------|-------------------|-----------------------------|
-------------------|-------------------|------------------<>4br--2-0-|
--7----------------|-------------------|--------------/2-------------|
-------------------|-------------------|-----------------------------|
-------------------|-------------------|-----------------------------|


  W                   Q     E   E   H             H.             Q     
-------------------|--------------------------|-----------------------|
-------------------|--------------------------|-----------------------|
--2----------------|-------12b--9--12b--------|---Lpb-----------------|
-------------------|--------------------------|-----------------------|
-------------------|--------------------------|-----------------------|
-------------------|--------------------------|-----------------------|


  W                   W                   W                   W                 
-------------------|-------------------|-------------------|-------------------|
-------------------|-------------------|-------------------|-------------------|
-------------------|-------------------|-------------------|-------------------|
-------------------|-------------------|-------------------|-------------------|
-------------------|-------------------|-------------------|-------------------|
-------------------|-------------------|-------------------|-------------------|


  H        Q    Q        H         Q     Q        H         Q    Q     
---------------------|------------------------|-----------------------|
---------------------|------------------------|-----------------------|
---------------------|------------------------|-----------------------|
--7--------L----9----|--10---------L----12----|--10---------L----9----|
---------------------|------------------------|-----------------------|
---------------------|------------------------|-----------------------|


  W                   H        Q    Q        H         Q     Q     
-------------------|---------------------|------------------------|
-------------------|---------------------|------------------------|
-------------------|---------------------|------------------------|
--7----------------|--7--------L----9----|--10---------L----12----|
-------------------|---------------------|------------------------|
-------------------|---------------------|------------------------|


                                                           SH           
   H         Q    Q       W                    H           E   Q.       
-----------------------|-------------------|---------------------------|
-----------------------|-------------------|---------------------------|
------------------7----|--9----------------|--12--------<>12--12b------|
--10---------L---------|-------------------|---------------------------|
-----------------------|-------------------|---------------------------|
-----------------------|-------------------|---------------------------|


       |---3---|                                   
   E   S   S   S  S  S  S   S   E    S   S  Q      
--------------------------------------------------|
------10h-12p-10----10-12b-12b-12b--12p-10--------|
--12-------------12------------------------12b----|
--------------------------------------------------|
--------------------------------------------------|
--------------------------------------------------|


                      SH   SH   SH                  
   S S  S  S  S  S    S    S    E   E  S   S  S  S  
---------------------------------------------------|
---------------------------------------------------|
--12-9---------------------------------------12-14-|
-------12-10-----------------------------/14-------|
-------------12-10------<>10-<>12--10--------------|
-------------------<>12----------------------------|


   S   S   S   S   S   S   E    E    Q      S   S     W                  
--------------------------------------------------|---------------------|
--------------------------------------------------|---------------------|
--14b-14b-14b-14b-14b-14b-14b--14b--14b----14p-12-|--14~----------------|
--------------------------------------------------|---------------------|
--------------------------------------------------|---------------------|
--------------------------------------------------|---------------------|


   E   Q.        S  Q        E.       Q      Q      H           
----------------------------------|----------------------------|
----------------------------------|--20-----20-----20----------|
--12--14brb--------14pbr----14/---|--19b----19b----19br--------|
----------------------------------|----------------------------|
----------------------------------|----------------------------|
----------------------------------|----------------------------|


   E    S  S   S  S  S  S   T  T  T  T   T  T  T  T   T  T  T  T   T  T  T  T   
-------------------------------------------------------------------------------|
-------17-20p-17----17-22p-17----17-20p-17----17-22p-17----17-20p-17----17-22h-|
--19b------------19-----------19-----------19-----------19-----------19--------|
-------------------------------------------------------------------------------|
-------------------------------------------------------------------------------|
-------------------------------------------------------------------------------|


                      \1/                                               
   S  E    H          Q      S    W                   W                 
-------------------------------|-------------------|-------------------|
--17------20----------L--------|-------------------|-------------------|
-----19b--19b---------Lpb------|-------------------|-------------------|
-------------------------------|-------------------|-------------------|
-------------------------------|-------------------|-------------------|
-------------------------------|-------------------|-------------------|


  W                   W                   W                   W                 
-------------------|-------------------|-------------------|-------------------|
-------------------|-------------------|-------------------|-------------------|
-------------------|-------------------|-------------------|-------------------|
-------------------|-------------------|-------------------|-------------------|
-------------------|-------------------|-------------------|-------------------|
-------------------|-------------------|-------------------|-------------------|


  W                   W                   Q.      Q     S  S  S  E.    
-------------------|-------------------|------------------------------|
-------------------|-------------------|------------------------------|
-------------------|-------------------|------------------------------|
-------------------|-------------------|--7~------7~----7~-7~-7~-7~---|
-------------------|-------------------|------------------------------|
-------------------|-------------------|------------------------------|


             SH     SH     SH           \1/                    \1/ \1/   
  E  E   X   S  X   S  X   S  X E    E  Q       Q    S S S E.  E   Q     
---------------------------------------------|--------------------------|
---------------------------------------------|--------------------------|
--5--7b----<>7b---<>7b---<>7b---7br--5--L----|-------5-4---5---4---L----|
---------------------------------------------|-----------5--------------|
---------------------------------------------|--------------------------|
---------------------------------------------|--------------------------|


  S S S S S S S S S S Q    E     E  E.   E  H           S   
------------------------------|----------------------------|
------------------------------|----------5--8brb--------8b-|
----4-----4---------5---------|-----7b---------------------|
------5-----5-5-6-7---7-------|----------------------------|
--------7---------------------|----------------------------|
------------------------------|----------------------------|


  E   E  E   E   Q.      E      S S. S. S. S  S  S S S  E.    S.  S  
------8----------------------|----7b-7------------------------------|
--8b-----8b--8b--8b------8\--|----------8----10p-8---8-10br---8--10-|
-----------------------------|-------------9-------9----------------|
-----------------------------|--------------------------------------|
-----------------------------|--------------------------------------|
-----------------------------|--------------------------------------|


   S S S S T T  T  T  T  T  T T T  T  T T  T  T Q    S  
-------------------------------------------------------|
--10-8-------------------------------------------------|
-------9-9-7-5h-7p-5h-7h-9p-7-5-4h-5p-4----------------|
----------------------------------------5h-7s-9-7------|
-------------------------------------------------------|
-------------------------------------------------------|


  E   H.             S  S     E    S  S  E     E   E   Q.         
--------------------10-12-|-------10-12--------------------------|
-----13b------------------|--13b--------13br--10--13--13brb------|
--------------------------|--------------------------------------|
--------------------------|--------------------------------------|
--------------------------|--------------------------------------|
--------------------------|--------------------------------------|


   T  T  T  T  T  T  T  T  T  T  T  T  T  T  T  T  T  T  T  T  T  S  T  T  T  T 
-----------12----------------12-------------10----------------10-12-10----------
--10-12-13----13-12-10-12-13----13-10-12-13----13-12-10-12-13----------10-12-13-
--------------------------------------------------------------------------------
--------------------------------------------------------------------------------
--------------------------------------------------------------------------------
--------------------------------------------------------------------------------


   T   T   T  S  S   S  H         E  S.  
-------------10-------------------------|
--10h-12h-13----13~-12-10~--------------|
----------------------------------------|
----------------------------------------|
----------------------------------------|
----------------------------------------|


   Q.       S  S  S  S  S  S  S  S  S   S     E     E   E   E   E   E   E   E   
--13b------13b---13b---13b---13b---13b-10-|--13br--10--13--10--13--10--13--10--|
------------------------------------------|------------------------------------|
------------------------------------------|------------------------------------|
------------------------------------------|------------------------------------|
------------------------------------------|------------------------------------|
------------------------------------------|------------------------------------|


=================================================================
=================================================================


Harmony


  H        Q    E  E     Q    Q      Q    Q       W                 
----------------------|------------------------|-------------------|
----------------------|------------------------|-------------------|
----------------9--7--|--5----5----------------|-------------------|
----------------------|------------/10----9----|--7----------------|
----------------------|------------------------|-------------------|
----------------------|------------------------|-------------------|


  W                   H        Q     E  E     Q    Q     Q    Q     
-------------------|-----------------------|-----------------------|
-------------------|----------------10--8--|-----------------------|
-------------------|-----------------------|--9----9----/9----7----|
-------------------|-----------------------|-----------------------|
-------------------|-----------------------|-----------------------|
-------------------|-----------------------|-----------------------|


  W                   W                   W                   W                 
-------------------|-------------------|-------------------|-------------------|
-------------------|-------------------|-------------------|-------------------|
--5----------------|-------------------|-------------------|-------------------|
-------------------|-------------------|-------------------|-------------------|
-------------------|-------------------|-------------------|-------------------|
-------------------|-------------------|-------------------|-------------------|


  Q     E     E   H             H.             Q       W                 
----------------------------|-----------------------|-------------------|
-------12br--10--12b--------|--12pb-----------------|-------------------|
----------------------------|-----------------------|-------------------|
----------------------------|-----------------------|-------------------|
----------------------------|-----------------------|-------------------|
----------------------------|-----------------------|-------------------|


  W                   W                   W                 
-------------------|-------------------|-------------------|
-------------------|-------------------|-------------------|
-------------------|-------------------|-------------------|
-------------------|-------------------|-------------------|
-------------------|-------------------|-------------------|
-------------------|-------------------|-------------------|


  H        Q    Q       H         Q     Q       H        Q    Q     
---------------------|-----------------------|---------------------|
---------------------|-----------------------|---------------------|
--5--------L----7----|--9---------L----10----|--9--------L----7----|
---------------------|------------L----------|---------------------|
---------------------|-----------------------|---------------------|
---------------------|-----------------------|---------------------|


  W                   H        Q    Q       H         Q     Q     
-------------------|---------------------|-----------------------|
-------------------|---------------------|-----------------------|
--5----------------|--5--------L----7----|--9---------L----10----|
-------------------|---------------------|------------L----------|
-------------------|---------------------|-----------------------|
-------------------|---------------------|-----------------------|


  H        Q    Q        W                   W                 
---------------------|--------------------|-------------------|
----------------8----|--10----------------|-------------------|
--9--------L---------|--------------------|-------------------|
---------------------|--------------------|-------------------|
---------------------|--------------------|-------------------|
---------------------|--------------------|-------------------|







Duration Legend
---------------
W - whole
H - half
Q - quarter
E - 8th
S - 16th
T - 32nd
X - 64th
. - note dotted
|-n-|  - n-tuplets


Tablature Legend
----------------
L - tied note
x - dead note
g - grace note
(n) - ghost note
> - accentuded note
NH - natural harmonic
AH - artificial harmonic
TH - tapped harmonic
SH - semi harmonic
PH - pitch harmonic
h - hammer on
p - pull off
b - bend
br - bendRelease
pb - preBend
pbr - preBendRelease
brb - bendReleaseBend
\n/ - tremolo bar dip
\n - tremolo bar dive
-/n - tremolo bar Release up
/n\ - tremolo bar inverted dip
/n - tremolo bar return
-\n - tremolo bar Release down
S - shift slide
s - legato slide
/ -  slide into from below or out of upwards
\ -  slide into from above or out of downwards
~ - vibrato
W - wide vibrato
tr - trill
TP - tremolo picking
T - tapping
S - slap
P - pop
< - fade in
^ - brush up
v - brush down





Comments


Popular Van Zant tabs & chords
Midnight Sensation Bass Tabs
Friend Chords
I Can't Help Myself Chords
I'm Doin' Alright Chords
Nobody Gonna Tell Me What To Do (correct) Chords
These Colors Don't Run Chords
Nobody Gonna Tell Me What To Do (2) Tabs
Help Somebody Ukulele
I Cant Help Myself Ukulele
Things I Miss The Most Ukulele


Song lyrics



↑ Back to top | Tablatures and chords are parodies/interpretations of the original songs. You may use it for private study, scholarship, research or language learning purposes only
© 2014 AZChords.com Contact us | Privacy policy | DMCA | Add/correct tabs | Request tabs | Top 50 tabs