>
 >
Im A Fighter

Im A Fighter Bass Tabs

Van Zant - Im A Fighter chords, tabs, tablatures, lyrics

Guitar lessons | Add/correct | Request | Top 50 tabs Artists:  A B C D E F G H I J K L M N O P Q R S T U V W X Y Z 0-9

Im A Fighter Bass Tabs – Van Zant

CD, Sheet music, Poster

Do you like Im A Fighter? Share with your friends now
Bass TabsTabs
-----------------------------------------------------------------------------
		      I'm A Fighter - Van Zant (BASS)
                       
-----------------------------------------------------------------------------

Tuning: Standard

=============================================================================

Bass




     W                   W                   W                 
G||-------------------|-------------------|-------------------|
D||-------------------|-------------------|-------------------|
A||-------------------|-------------------|-------------------|
E||-------------------|-------------------|-------------------|


  W                   W                   W                   W                 
-------------------|-------------------|-------------------|-------------------|
-------------------|-------------------|-------------------|-------------------|
-------------------|-------------------|-------------------|-------------------|
-------------------|-------------------|-------------------|-------------------|


  W                   W                   W                   W                 
-------------------|-------------------|-------------------|-------------------|
-------------------|-------------------|-------------------|-------------------|
-------------------|-------------------|-------------------|-------------------|
-------------------|-------------------|-------------------|-------------------|


  W                   W                   H        Q    Q      
-------------------|-------------------|----------------------|
-------------------|-------------------|----------------------|
-------------------|-------------------|----------------------|
-------------------|-------------------|----------------5\----|


  E.  S E.  S E.  S E.  S    E.  S E.  S E.  S E.  S  
--------------------------|--------------------------|
--------------------------|--------------------------|
--------------------------|--------------------------|
--5-----5-----5-----5-----|--5-----5-----5-----5-----|


  E.  S E.  S E.  S E.  S    E  E  E  H        E     H.           Q     
--------------------------|-----------------------|--------------------|
--------------------------|-----------------------|--------------------|
--------------------------|-----2--3--0--------L--|--L------------L----|
--5-----5-----5-----5-----|--3--------------------|--------------------|


  E  S S S S S S    S S S S S S S S S S S S S S S S  
-----------------|----------------------------------|
-----2-0---------|----------------------------------|
---------3-5-3-0-|----------------------------------|
-----------------|--5---5-5-5---5-5-5---5-5-5---5-5-|


  S S S S S S S S S S S S S S S S    S S S S S S S S S S S S S S S S  
----------------------------------|----------------------------------|
----------------------------------|----------------------------------|
----------------------------------|----------------------------------|
--5---5-5-5---5-5-5---5-5-5---5-5-|--5---5-5-5---5-5-5---5-5-5---5-5-|


  S S S S S S S S S S S S S S S S    S S S S S S S S S S S S S S S S  
----------------------------------|----------------------------------|
----------------------------------|----------------------------------|
----------------------------------|----------------------------------|
--5---5-5-5---5-5-5---5-5-5---5-5-|--5---5-5-5---5-5-5---5-5-5---5-5-|


  S S S S S S S S S S S S S S E     S S S S S S S S S S S S S S S S  
---------------------------------|----------------------------------|
---------------------------------|----------------------------------|
---------------------------------|----------------------------------|
--5---5-5-5---5-5-5---5-5-5---3--|--5---5-5-5---5-5-5---5-5-5---5-5-|


  E  E  E  H        E     H.           Q       H         
-----------------------|--------------------|-----------|
-----------------------|--------------------|-----------|
-----2--3--0--------L--|--L------------L----|--L--------|
--3--------------------|--------------------|-----------|


  S S S S S S S S S S S S S S S S    S S S S S S S S S S S S S S S S  
----------------------------------|----------------------------------|
----------------------------------|----------------------------------|
----------------------------------|----------------------------------|
--5---5-5-5---5-5-5---5-5-5---5-5-|--5---5-5-5---5-5-5---5-5-5---5-5-|


  S S S S S S S S S S S S S S S S    S S S S S S S S S S S S S S E   
----------------------------------|---------------------------------|
----------------------------------|---------------------------------|
----------------------------------|---------------------------------|
--5---5-5-5---5-5-5---5-5-5---5-5-|--5---5-5-5---5-5-5---5-5-5---3--|


  S S S S E   S S S S S S S S S S    S S S S S S S S S S S S S S E   
----------------------------------|---------------------------------|
----------------------------------|---------------------------------|
----------------------------------|---------------------------------|
--5---5-5-5\------5---5-5-5---5-5-|--5---5-5-5---5-5-5---5-5-5---5--|


  S S S S S S S S S S S S S S S S    S S S S S S S S S S S S S S S S  
----------------------------------|----------------------------------|
----------------------------------|----------------------------------|
----------------------------------|------------------------------2-2-|
--5---5-5-5---5-5-5---5-5-5---5-5-|--5---5-5-5---5-5-5---5-5-5-------|


  Q.     E  Q.     E       Q    E  Q.     E  E     Q.     E  H         
-----------------------|------------------------|---------------------|
-----------------------|------------------------|---------------------|
--3------2-------------|-----------0------0--2--|--3------2-----------|
------------3------3/--|--10--------------------|------------3--------|


  S S S S S S S S S S S S S S E     Q.     E  H         
---------------------------------|---------------------|
---------------------------------|---------------------|
------------------------------2--|--3------2-----------|
--5---5-5-5---5-5-5---5-5-5------|------------3--------|


   Q    E  Q.     E  E     Q.     E  Q.     E    
------------------------|-----------------------|
------------------------|-----------------------|
-----------0------0--2--|--3------2-------------|
--10--------------------|------------3------3/--|


  S S S S S S S S S S  S S S  S S S    E   E  H.            
------------------------------------|----------------------|
------------------------------------|----------------------|
-------------------------5-7p-5-5-7-|--7\------------------|
--0---0-0-0---0-0-0-3-/7------------|---------0------------|


  S S S S S S S S S S S S S S S S    S S S S S S S S S S S S S S S S  
----------------------------------|----------------------------------|
----------------------------------|----------------------------------|
----------------------------------|----------------------------------|
--5---5-5-5---5-5-5---5-5-5---5-5-|--5---5-5-5---5-5-5---5-5-5---5-5-|


  S S S S S S S S S S S S S S S S    S S S S S S S S S S S S S S E   
----------------------------------|---------------------------------|
----------------------------------|---------------------------------|
----------------------------------|---------------------------------|
--5---5-5-5---5-5-5---5-5-5---5-5-|--5---5-5-5---5-5-5---5-5-5---3--|


  S S S S S S S S S S S S S S S S    S S S S S S S S S S S S S S S S  
----------------------------------|----------------------------------|
----------------------------------|----------------------------------|
----------------------------------|----------------------------------|
--5---5-5-5---5-5-5---5-5-5---5-5-|--5---5-5-5---5-5-5---5-5-5---5-5-|


  S S S S S S S S S S S S S S S S    S S S S S S S S S S S S S S E   
----------------------------------|---------------------------------|
----------------------------------|---------------------------------|
----------------------------------|---------------------------------|
--5---5-5-5---5-5-5---5-5-5---5-5-|--5---5-5-5---5-5-5---5-5-5---3--|


  S S S S S S S S S S S S S S S S    S S S S S S S S S S S S S S S S  
----------------------------------|----------------------------------|
----------------------------------|----------------------------------|
----------------------------------|----------------------------------|
--5---5-5-5---5-5-5---5-5-5---5-5-|--5---5-5-5---5-5-5---5-5-5---5-5-|


  H        Q    Q       S S S S S S S S S S S S S S S S  
---------------------|----------------------------------|
---------------------|----------------------------------|
-----------3---------|----------------------------------|
--1-------------3----|--5---5-5-5---5-5-5---5-5-5---5-5-|


  S S S S S S S S S S S S S S S S    S S S S S S S S S S S S S S S S  
----------------------------------|----------------------------------|
----------------------------------|----------------------------------|
----------------------------------|----------------------------------|
--5---5-5-5---5-5-5---5-5-5---5-5-|--5---5-5-5---5-5-5---5-5-5---5-5-|


  Q    Q    Q    Q       S S S S S S S S S S S S S S E   
----------------------|---------------------------------|
----------------------|---------------------------------|
------------3---------|------------------------------2--|
--1----1---------3----|--5---5-5-5---5-5-5---5-5-5------|


  Q.     E  Q.     E       Q    E  Q.     E  E     Q.     E  H         
-----------------------|------------------------|---------------------|
-----------------------|------------------------|---------------------|
--3------2-------------|-----------0------0--2--|--3------2-----------|
------------3------3/--|--10--------------------|------------3--------|


  S S S S S S S S S S S S S S E     Q.     E  H         
---------------------------------|---------------------|
---------------------------------|---------------------|
------------------------------2--|--3------2-----------|
--5---5-5-5---5-5-5---5-5-5------|------------3--------|


   Q    E  Q.     E  E     Q.     E  Q.     E    
------------------------|-----------------------|
------------------------|-----------------------|
-----------0------0--2--|--3------2-------------|
--10--------------------|------------3------3/--|


  S S S S S S S S S S  S S S  S S S    E   E  H.            
------------------------------------|----------------------|
------------------------------------|----------------------|
-------------------------5-7p-5-5-7-|--7\------------------|
--0---0-0-0---0-0-0-3-/7------------|---------0------------|


  S S S S S S S S S S S S S S S S    S S S S S S S S S S S S S S S S  
----------------------------------|----------------------------------|
----------------------------------|----------------------------------|
----------------------------------|----------------------------------|
--5---5-5-5---5-5-5---5-5-5---5-5-|--5---5-5-5---5-5-5---5-5-5---5-5-|


  S S S S S S S S S S S S S S S S    S S S S S S S S S S S S S S E   
----------------------------------|---------------------------------|
----------------------------------|---------------------------------|
----------------------------------|---------------------------------|
--5---5-5-5---5-5-5---5-5-5---5-5-|--5---5-5-5---5-5-5---5-5-5---3--|


  S S S S S S S S S S S S S S S S    S S S S S S S S S S S S S S S S  
----------------------------------|----------------------------------|
----------------------------------|----------------------------------|
----------------------------------|----------------------------------|
--5---5-5-5---5-5-5---5-5-5---5-5-|--5---5-5-5---5-5-5---5-5-5---5-5-|


  S S S S S S S S S S S S S S S S    S S S S S S S S S S S S S S S S  
----------------------------------|----------------------------------|
----------------------------------|----------------------------------|
----------------------------------|----------------------------------|
--5---5-5-5---5-5-5---5-5-5---5-5-|--5---5-5-5---5-5-5---5-5-5---5-5-|


  Q.     E  Q.     E       Q    E  Q.     E  E     Q.     E  H         
-----------------------|------------------------|---------------------|
-----------------------|------------------------|---------------------|
--3------2-------------|-----------0------0--2--|--3------2-----------|
------------3------3/--|--10--------------------|------------3--------|


  S S S S S S S S S S S S S S E     Q.     E  H         
---------------------------------|---------------------|
---------------------------------|---------------------|
------------------------------2--|--3------2-----------|
--5---5-5-5---5-5-5---5-5-5------|------------3--------|


   Q    E  Q.     E  E     Q.     E  Q.     E    
------------------------|-----------------------|
------------------------|-----------------------|
-----------0------0--2--|--3------2-------------|
--10--------------------|------------3------3/--|


  S S S S S S S S S S  S S S  S S S    E   E  H.            
------------------------------------|----------------------|
------------------------------------|----------------------|
-------------------------5-7p-5-5-7-|--7\------------------|
--0---0-0-0---0-0-0-3-/7------------|---------0------------|


  S S S S S S S S S S S S S S S S    S S S S S S S S S S S S S S S S  
----------------------------------|----------------------------------|
----------------------------------|----------------------------------|
----------------------------------|----------------------------------|
--5---5-5-5---5-5-5---5-5-5---5-5-|--5---5-5-5---5-5-5---5-5-5---5-5-|


  S S S S S S S S S S S S S S S S    S S S S S S S S S S S S S S E   
----------------------------------|---------------------------------|
----------------------------------|---------------------------------|
----------------------------------|---------------------------------|
--5---5-5-5---5-5-5---5-5-5---5-5-|--5---5-5-5---5-5-5---5-5-5---3--|


  S S S S S S S S S S S S S S S S    S S S S S S S S S S S S S S S S  
----------------------------------|----------------------------------|
----------------------------------|----------------------------------|
----------------------------------|----------------------------------|
--5---5-5-5---5-5-5---5-5-5---5-5-|--5---5-5-5---5-5-5---5-5-5---5-5-|


  S S S S S S S S S S S S S S S S    S S S S S S   S  S  S  S  S  S  S  S  E    
----------------------------------|--------------------------------------------|
----------------------------------|--------------------------------------------|
----------------------------------|--------------/12-12-12-12-12-12-12-12-12\--|
--5---5-5-5---5-5-5---5-5-5---5-5-|--5---5-5-5---------------------------------|


  E  S S E  S S E  S S E  S S    E  S S E  S S E  S S E  S S  
------------------------------|------------------------------|
------------------------------|------------------------------|
------------------------------|------------------------------|
--5--5-5-5--5-5-5--5-5-5--5-5-|--5--5-5-5--5-5-5--5-5-5--5-5-|


  E  S S E  S S E  S S E  S S    E  S S E  S S E  S S E  S S  
------------------------------|------------------------------|
------------------------------|------------------------------|
------------------------------|------------------------------|
--5--5-5-5--5-5-5--5-5-5--5-5-|--5--5-5-5--5-5-5--5-5-5--5-5-|


  E  S S E  S S E  S S E  S S    E  S S E  S S E  S S E  S S  
------------------------------|------------------------------|
------------------------------|------------------------------|
------------------------------|------------------------------|
--5--5-5-5--5-5-5--5-5-5--5-5-|--5--5-5-5--5-5-5--5-5-5--5-5-|


  E  S S E  S S E  S S E  S S    E  S S E  S S E  S S E  S S  
------------------------------|------------------------------|
------------------------------|------------------------------|
------------------------------|------------------------------|
--5--5-5-5--5-5-5--5-5-5--5-5-|--5--5-5-5--5-5-5--5-5-5--5-5-|


  E  S S E  S S E  S S E  S S    E  S S E  S S E  S S E  S S  
------------------------------|------------------------------|
------------------------------|------------------------------|
------------------------------|------------------------------|
--5--5-5-5--5-5-5--5-5-5--5-5-|--5--5-5-5--5-5-5--5-5-5--5-5-|


  E  S S E  S S E  S S E  S S    E  S S E  S S E  S S E  S S  
------------------------------|------------------------------|
------------------------------|------------------------------|
------------------------------|------------------------------|
--5--5-5-5--5-5-5--5-5-5--5-5-|--5--5-5-5--5-5-5--5-5-5--5-5-|


  E  S S E  S S E  S S E  S S    E  S S E  S S E  S S E  S S  
------------------------------|------------------------------|
------------------------------|------------------------------|
------------------------------|------------------------------|
--5--5-5-5--5-5-5--5-5-5--5-5-|--5--5-5-5--5-5-5--5-5-5--5-5-|


  E  S S E  S S E  S S E  S S   
------------------------------||
------------------------------||
------------------------------||
--5--5-5-5--5-5-5--5-5-5--5-5-||




Duration Legend
---------------
W - whole
H - half
Q - quarter
E - 8th
S - 16th
T - 32nd
X - 64th
. - note dotted
|-n-|  - n-tuplets


Tablature Legend
----------------
L - tied note
x - dead note
g - grace note
(n) - ghost note
> - accentuded note
NH - natural harmonic
AH - artificial harmonic
TH - tapped harmonic
SH - semi harmonic
PH - pitch harmonic
h - hammer on
p - pull off
b - bend
br - bendRelease
pb - preBend
pbr - preBendRelease
brb - bendReleaseBend
\n/ - tremolo bar dip
\n - tremolo bar dive
-/n - tremolo bar Release up
/n\ - tremolo bar inverted dip
/n - tremolo bar return
-\n - tremolo bar Release down
S - shift slide
s - legato slide
/ -  slide into from below or out of upwards
\ -  slide into from above or out of downwards
~ - vibrato
W - wide vibrato
tr - trill
TP - tremolo picking
T - tapping
S - slap
P - pop
< - fade in
^ - brush up
v - brush down





Comments


Popular Van Zant tabs & chords
Friend Chords
I Can't Help Myself Chords
Nobody Gonna Tell Me What To Do Chords
Nobody Gonna Tell Me What To Do (correct) Chords
Plain Jane Chords
Nobody Gonna Tell Me What To Do (2) Tabs
Things I Miss The Most Tabs
Your Takin' Up Space Tabs
Help Somebody Ukulele
Things I Miss The Most Ukulele


Song lyrics



↑ Back to top | Tablatures and chords are parodies/interpretations of the original songs. You may use it for private study, scholarship, research or language learning purposes only
© 2014 AZChords.com Contact us | Privacy policy | DMCA | Add/correct tabs | Request tabs | Top 50 tabs