» » »

Vanilla Sky, Just Dance Tabs (ver.1)

Artists:  A B C D E F G H I J K L M N O P Q R S T U V W X Y Z # 

Just Dance Tabs (ver.1)

Vanilla Sky Tabs
Rating:
1/5 (1 vote)
Just Dance lessons Tabs too difficult? Try these video lessons and learn fast
                Intro:
Part I:
Guitar1:
e-----------------------|
B-----------------------|
G-----------------------|
D-----------------------|\
A---------2222----4444--| 2x
E-----4444----2222------|/
P.M.....................

Part II:
Guitar1:
e-------------------------|
B-------------------------|\
G----------4444------6666-| \
D-----6666-4444-4444-6666-|  2x
A-----6666-2222-4444-4444-| /
E-----4444------2222------|/

Guitar2:
e---------------------------------------------|
B---------------------------------------------|
G---------------------------------------------|\
D-----13-13-13-13\4-4-4-4\11-11-11-11\6-6-6-6-| 2x
A-----11-11-11-11\2-2-2-2\9--9--9--9-\4-4-4-4-|/
E---------------------------------------------|

Verse:
Guitar1-Mute
Guitar2-Mute

Bridge:
Guitar1:
e-------------------------------------|
B-------------------------------------|
G---------------------444444444444444-|
D-----222222222222222-444444444444444-|
A-----222222222222222-222222222222222-|
E-----000000000000000-----------------|
P.M...................................

Guitar2:
e-------0----0----0----2----2----2-|
B------0----0----0----4----4----4--|
G-----1----1----1----4----4----4---|
D----------------------------------|
A----------------------------------|
E----------------------------------|

Guitar1:
e---------------------------------------|
B---------------------------------------|
G---------------------44444444444-44-44-|
D-----222222222222222-44444444444-44-44-|
A-----222222222222222-22222222222-22-22-|
E-----000000000000000-------------------|
P.M............................../dont pm this part

Guitar2:
e-------0----0----0----2-----------|
B------0----0----0----4---44-44----|
G-----1----1----1----4----44-44----|
D-------------------------22-22----|
A----------------------------------|
E----------------------------------|

Chorus:
Guitar1 and Guitar2- Do intro part II 4x

Verse 2:
Guitar1 only:
e---------------|
B---------------|\
G-----4---------| \
D-----4--4\6----|  2x then pause and wait for bridge
A-----2--4\6----| /
E--------2\4----|/ 

Bridge 2:
Guitar1 and 2- repeat first bridge

Chorus 2:
Guitar1 and 2- do intro part II 4x

Verse 3:
Guitar1 and 2- Do intro part II 4x (add some pauses) then

Guitar1 and 2:Use Chords E then B 2x

Bridge3(if that's what you call it)
Guitar1- do intro part I 6x

Chorus 3:
Guitar 1 and 2- do intro part II 4x

Outro:
e--------------|
B--------------|
G--------44\0--|
D----66--44\0--|
A----66--22\0--|
E----44--------|
            
Submit corrections

comments powered by Disqus
↑ Back to top | Vanilla Sky Tabs for Just Dance. Lyrics for acoustic guitar and electric guitar. Tablatures and chords are parodies/interpretations of the original songs. You may use it for private study, scholarship, research or language learning purposes only