» » »

Cambiamenti Tabs (ver.1)

Artists:  A B C D E F G H I J K L M N O P Q R S T U V W X Y Z # 

Cambiamenti Tabs (ver.1)

Vanilla Sky
Rating:
0/5 (0 votes)

Hard to play? Try these video lessons and learn fast.
                Tuning: down S step

intro/verse:

eb|---------------------------------|
Bb|---------------------------------|
Gb|-----------------2-2-2-2-2-2-2-2-|
Db|-6-6-6-2-2-2-2-2-2-2-2-2-2-2-2-2-|
Ab|-4-4-4-2-2-2-2-2-0-0-0-0-0-0-0-0-|
Eb|-4-4-4-0-0-0-0-0-----------------|

pre-chorus:

eb|-------------------------------------------------------------------|
Bb|-------------------------------------------------------------------|
Gb|-4-4-4-4-4-4-4-4---------------------------------2-2-2-------------|
Db|-4-4-4-4-4-4-4-4-2-2-2-2-2-2-2-2-6-6-6-2-2-2-2-2-2-2-2-2-2-2-2-2---|  2x
Ab|-2-2-2-2-2-2-2-2-0-0-0-0-0-0-0-0-4-4-4-2-2-2-2-2-0-0-0-2-2-2-2-2---|
Eb|-----------------0-0-0-0-0-0-0-0-4-4-4-0-0-0-0-0-------0-0-0-0-0---|

chorus:

eb|-----------------------------------------------------------------|
Bb|-----------------------------------------------------------------|
Gb|-6-6-6-----------------4-4-4-4-4-2-2-2-----------4-4-4-4-4-4-4-4-|
Db|-6-6-6-2-2-2-2-2-4-4-4-4-4-4-4-4-2-2-2-2-2-2-2-2-4-4-4-4-4-4-4-4-| 2x
Ab|-4-4-4-2-2-2-2-2-4-4-4-2-2-2-2-2-0-0-0-2-2-2-2-2-2-2-2-2-2-2-2-2-|
Eb|-------0-0-0-0-0-2-2-2-----------------0-0-0-0-0-----------------|


Outro:

eb|-----------------------------------------------------------------|
Bb|-----------------------------------------------------------------|
Gb|-2-2-2-2-2-2-2-2-4-4-4-4-4-4-4-4-5-5-5-5-5-5-5-5-6-6-6-6-6-4-4-4-|
Db|-2-2-2-2-2-2-2-2-4-4-4-4-4-4-4-4-5-5-5-5-5-5-5-5-6-6-6-6-6-4-4-4-|
Ab|-0-0-0-0-0-0-0-0-2-2-2-2-2-2-2-2-3-3-3-3-3-3-3-3-4-4-4-4-4-2-2-2-|
Eb|-----------------------------------------------------------------|

to the end
            
Hard to play? Try these video lessons and learn fast. | Correct




comments powered by Disqus
↑ Back to top | Tablatures and chords are parodies/interpretations of the original songs. You may use it for private study, scholarship, research or language learning purposes only