» » »

Van Halen, Pretty Woman Tabs (ver.4)

Artists:  A B C D E F G H I J K L M N O P Q R S T U V W X Y Z # 

Pretty Woman Tabs (ver.4)

Van Halen Tabs
 Rating:
4/5 (4 votes)
Pretty Woman lessons Tabs too difficult? Try these video lessons and learn fast
                (Intro)
-------------------------------------------------------------------------------
                             PRETTY WOMAN - Van Halen
-------------------------------------------------------------------------------

Tuning: Standard

e|-------------------------------------------------------------------------|
B|------------0-(0)---------0-(0)--------0-(0)---------0-(0)---------------|
G|-----------------2-------------2------------2-------------(2)------------|
D|----------2--------------------------2-----------------------------------|
A|--------0--------------------------0-------------------------------------|
E|--12\----------------0-(0)----------------------0-(0)---------10\--------|


e|-------------------------------------------------------------------------|
B|-------------------------------------------------------------------------|
G|-------------------------------------------------------------------------|
D|-------------------------------------------------------------------------|
A|----------5b~-5w~-5w-5w-5w---------5b~---(5w)-0w-0w----------------------|
E|--0-0-4-7------------------0-0-4-7------------------12\------------------|

e|-------------------0-0---------------0-0---------------------------------|
B|-------------------0-0---------------0-0---------------------------------|
G|-------------------------------------------------------------------------|
D|------------4----------------4-------------------------------------------|
A|----------5---7-5w----------5---7-5w-------------------------------------|
E|--0-0-4-7--------------4-7-----------------------------------------------|

e|-------------------0-0-|-----------------| **This last part sounds a bit
B|-------------------0-0-|-----------------|   cleaner than the other
G|-----------------------|-----------------|   parts**
D|------------4----------|-------4---------|
A|----------5---7-5w-----|------5---7-5----|   <----
E|--0-0-4-7--------------|-4-7-------------|

e|-----|
B|-----|
G|-----|
D|-----|
A|-----|
E|-12\-|

This is only the first 25-odd seconds of the song, but from my ear, it sounds dead on 
accurate with the whammy bar added with a bit of vibrato.

Please rate and comment :)


************************************

| /   slide up
| \   slide down
| ~   vibrato
| w   quick whammy

| b   Bend

************************************
            
Submit corrections

comments powered by Disqus
↑ Back to top | Van Halen Tabs for Pretty Woman. Lyrics for acoustic guitar and electric guitar. Tablatures and chords are parodies/interpretations of the original songs. You may use it for private study, scholarship, research or language learning purposes only