>
 >
Panama Guitar Lead

Panama Guitar Lead Guitar Tabs

Van Halen - Panama Guitar Lead chords, tabs, tablatures, lyrics

Guitar lessons | Add/correct | Request | Top 50 tabs Artists:  A B C D E F G H I J K L M N O P Q R S T U V W X Y Z 0-9

Panama Guitar Lead Guitar Tabs – Van Halen

CD, Sheet music, Poster

Do you like Panama Guitar Lead? Share with your friends now
Tabs
Panama! - Van Halen (Aug 2002)

Hey, this is Grant Dowse im 14 and this is my first tab.
It's not hard just give it a go! you have to, it's van halen!
Enjoy!

                                                          
E||--------------------------|---------------------------|
B||----9--------10--------7--|--------9--------10-----7--|
G||----9--------9---------8--|--------9--------9------8--|
D||----9--------9---------9--|--------9--------9------9--|
A||-------7--7------7--7-----|--7--7-----7--7------7-----|
E||--------------------------|---------------------------|


                                 Dive this "B"                                         
--------------------------|------v-------------|--------------------------|
-----7--------8--------5--|------0-------------|----9--------10--------7--|
-----7--------7--------6--|--------------------|----9--------9---------8--|
-----7--------7--------7--|--------------------|----9--------9---------9--|
--5-----5--5-----5--5--5--|--------------------|-------7--7------7--7-----|
--------------------------|-----------------0--|--------------------------|


                                                                             
---------------------------|--------------------------|---------------------|
--------9--------10-----7--|-----7--------8--------5--|-----------------5-5-|
--------9--------9------8--|-----7--------7--------6--|-----------------6-6-|
--------9--------9------9--|-----7--------7--------7--|-----------------6-6-|
--7--7-----7--7------7-----|--5-----5--5-----5--5--5--|----x------------4-4-|
---------------------------|--------------------------|----x----------------|


                                                                         
---------------------|-------------------------|------------------------|
--5------------------|-----------4----5h-4-----|--4/-2------------------|
--6------------------|-----------4----4--------|--4/-2-----2-----2------|
--6------------------|-----------4----4--------|--4/-2-----2-----2------|
--4------------4--4--|--4--4--4-------------0--|--------0-----0--0------|
---------------------|-------------------------|------------------------|


                                                                      
----------------------|----------------------|-----------------------|
----------------------|-------------4-----4--|----5---------5h-4-----|
------------------6-6-|--6-------------6-----|---------4----4--------|
------------------6-6-|--6-------------------|---------4-------------|
----2r---------0--4-4-|--4-------------------|--------------------0--|
----------------------|----------------------|-----------------------|


                                                                           
------------------------|-----------------------|----0--------0--------5--|
--4/-2------------------|--------------------4--|-------4--------4--------|
--4/-2-----2-----2------|--------------------4--|----------4--------4-----|
--4/-2-----2-----2------|--------------------4--|-------------------------|
--------0-----0--0------|--------0--0--0--0--2--|-------------------------|
------------------------|-----------------------|-------------------------|


        N.H...........                                                                 
--------5-----------------|-------------------------|-------------------------|
--4--------4--4--4--4-----|-------------3-----------|-----3-------------------|
-----4-----4--4--4--4-----|-------2-----2--------2--|-----2--2----------------|
--------------------------|-------2-----0--0--0--2--|-----0--2-----7/-5-------|
-----------------------2--|-------0--0-----------0--|--0-----0-----7/-5----2--|
-----------------------0--|----0--------------------|-----------0----------0--|


                                                                                
--------------------------|-------------------------|--------------------------|
--------------3-----------|-----3-------------------|--------------3-----------|
--------2-----2--------2--|-----2--2----------------|--------2-----2--------2--|
--------2-----0--0--0--2--|-----0--2-----7/-5-------|--------2-----0--0--0--2--|
--------0--0-----------0--|--0-----0-----7/-5----2--|--------0--0-----------0--|
--0--0--------------------|-----------0----------0--|--0--0--------------------|


                                                                               
-------------------------|--------------------------|-------------------------|
-----3-------------------|--------------3-----------|-----3-------------------|
-----2--2----------------|--------2-----2--------2--|-----2--2----------------|
-----0--2-----7/-5-------|--------2-----0--0--0--2--|-----0--2-----7/-5----0--|
--0-----0-----7/-5----2--|--------0--0-----------0--|--0-----0-----7/-5----0--|
-----------0-------------|--0--0--------------------|-----------0-------------|


                                                                       
----------------------|----------------0-------|----0-----------------|
----------------------|----------------0----2--|----3-----------------|
----------------------|---------------------2--|----2-----------------|
----2-----------------|------------------------|----------------------|
----2-----------------|------------------------|----------------x-----|
-------------0--0--0--|--0--0--0--0------------|-------------0-----0--|


                                                                       
----------------------|----------------------|------------------------|
----------------------|----------------------|----------------0----2--|
----------------------|----------------------|----------------0----2--|
--------------0----0--|----2-----------------|------------------------|
--------------0----0--|----2-----------------|------------------------|
------x--0------------|-------------0--0--0--|--0--x--x--0------------|


                                                                       
----0-----------------|-----------------------|--------------0--------|
----3--------3-----3--|-------------------0-0-|--0--------0-----0-----|
----2-----------2-----|-------------------3-3-|--3-----------------3--|
----------------------|-------------------4-4-|--4--------------------|
----------------------|-------------------4-4-|--4--------------------|
----------------------|------x----x----x------|--2--------------------|


                                                                       
-------------------------|---------0-------------|--0-----------------|
--0--------0-------------|--------------0--------|--0-----------------|
-----3--------3-----3/---|-----------------6-----|--6-----------------|
--------4--------4--4/---|--6-----------------6--|--6-----------------|
-------------------------|--4--------------------|--4-----------------|
-------------------------|-----------------------|-----------x--------|


                                                                         
----------------------|-----------------------|----4--------0--------0--|
----------------------|-----------------------|-------4--------4--------|
----------------------|--------------------4--|----------4--------4-----|
----------------------|--------------------4--|-------------------------|
----5--------------3--|--------------------2--|-------------------------|
-------6--5~----------|--4--3------2----0-----|-------------------------|


                                                                                
-----5--------------------|--------------------------|-------------------------|
--4-----4--4--4--4--4-----|--------------3-----------|-----3-------------------|
--------4--4--4--4--4-----|--------2-----2--------2--|-----2--2-----2----------|
--------------------------|--------2-----0--0--0--2--|-----0--2-----2----------|
-----------------------2--|--------0--0-----------0--|--0-----0--x--0-------2--|
-----------------------0--|--0--0--------------------|-----------------3~---0--|


                                                                               
--------------------------|------------------------|--------------------------|
--------------3-----------|-----3------------------|--------------3-----------|
--------2-----2--------2--|-----2--2---------------|--------2-----2--------2--|
--------2-----0--0--0--2--|-----0--2---------------|--------2-----0--0--0--2--|
--------0--0-----------0--|--------0------------2--|--------0--0-----------0--|
--0--0--------------------|--3--------0--3------0--|--0--0--------------------|


                                                                               
-------------------------|--------------------------|-------------------------|
-----3-------------------|--------------3-----------|-----3-------------------|
-----2--2----------------|--------2-----2--------2--|-----2--2----------------|
-----0--2-----7/-5-------|--------2-----0--0--0--2--|-----0--2-----7/-5----0--|
--0-----0-----7/-5----2--|--------0--0-----------0--|--0-----0-----7/-5----0--|
-----------0----------0--|--0--0--------------------|-----------0-------------|


                                                                       
----------------------|----------------0-------|----0-----------------|
----------------------|----------------0----2--|----3-----------------|
----------------------|---------------------2--|----2-----------------|
----2-----------------|------------------------|----------------------|
----2-----------------|------------------------|----------------------|
-------------0--0--0--|--0--0--0--0------------|-------------0--x--0--|


                                                                      
---------------------|----------------------|------------------------|
---------------------|----------------------|----------------0----2--|
---------------------|----------------------|----------------0----2--|
------------------0--|----2-----------------|------------------------|
------------------0--|----2-----------------|------------------------|
--0------0-----------|-------------0--0--0--|--0--x--x--0------------|


                                                                 
----0--------------|---------------------|-------------0--------|
----3--------------|------------------0--|----------0-----0-----|
----2--------------|------------------3--|----------------------|
-------------------|------------------4--|-------------------4--|
-------------------|------------------4--|----------------------|
-------------------|------x--------2-----|----------------------|


                                                                          
-------------------------|---------0-------------|-----------------------|
--0--------0-------------|--------------0--------|--0--------------------|
-----3--------3-----3/---|-----------------6-----|-----6--6--------------|
--------4--------4--4/---|--6-----------------6--|--------6--------------|
-------------------------|--4--------------------|--------4--------------|
-------------------------|-----------------------|-----------------12/---|


                                                                         
----------------------|-----------------------|----4--------0--------0--|
----------------------|-----------------------|-------4--------4--------|
----------------------|--------------------4--|----------4--------4-----|
----------------------|--------------------4--|-------------------------|
----5--------------3--|--------------------2--|-------------------------|
-------6--5~----------|--4--3------2----0-----|-------------------------|


     N.H..............                                                                         
-----5--------------------|--------------------------|-------------------------|
--4-----4--4--4--4--4-----|--------------3-----------|-----3-------------------|
--------4--4--4--4--4-----|--------2-----2--------2--|-----2--2----------------|
--------------------------|--------2-----0--0--0--2--|-----0--2-----7/-5-------|
-----------------------2--|--------0--0-----------0--|--0-----0-----7/-5----2--|
-----------------------0--|--0--0--------------------|-----------0----------0--|


                                                                                
--------------------------|-------------------------|--------------------------|
--------------3-----------|-----3-------------------|--------------3-----------|
--------2-----2--------2--|-----2--2----------------|-----2--2--2--2--------2--|
--------2-----0--0--0--2--|-----0--2-----7/-5-------|-----2--2--2--0--0--0--2--|
--------0--0-----------0--|--0-----0-----7/-5----2--|-----0--0--0-----------0--|
--0--0--------------------|-----------0----------0--|--0-----------------------|


                                                                             
-------------------------|--------------------------|-----------------------|
-----3-------------------|--------------3--3-----3--|----3---------------7--|
-----2--2----------------|--------2-----2--------0--|----0---------0-----9b-|
-----0--2-----7/-5-------|--2-----2-----0--------x--|----x---------x--------|
--0-----0-----7/-5----2--|--2-----0--0--------0--3--|----2----0----3h-0-----|
-----------0----------0--|--0--0--------------------|-----------------------|


                                                   
--7--7--7-----7--7-----7--|--7--7-----------------|
--7--7--7--7--7--7--7--7--|--7--7-----------------|
-----------9b-------9b-9b-|--9b-9b---9h7-9b-------|
--------------------------|-----------------------|
--------------------------|-----------------------|
--------------------------|-----------------------|


                                                                             
-------------------------7---------------7--------|-------------------------|
-------7h10h7---7h10h7-----10h7-----10h7---10h7---|--7--------7-------------|
----9---------9--------9--------7h9-------------9-|----9r-7-9---7b-------9b-|
--------------------------------------------------|-------------------------|
--------------------------------------------------|-------------------------|
--------------------------------------------------|-------------------------|


                                                                             
------------------------------------------------|---------------------------|
------------------------------------------------|---------------------------|
----14h-11--12h-11--14h-11--16h-11--14h-11--12t-|--11h-9h7-9--9b--7h9h7~----|
------------------------------------------------|---------------------------|
------------------------------------------------|---------------------------|
------------------------------------------------|---------------------------|


                                                                            
-------------------------|----------------------------|--------------------|
-------------------------|----------------------------|--------------------|
----7b-7--------7b-------|----------------------------|--------------------|
----------9---------9----|----------------------------|--------------------|
-------------9--------9--|--8--7--7h5/--9h-10h-9------|--7b-------2--------|
-------------------------|------------------------10--|--------------------|


                                                                            
------------------------|----------------------|---------------------------|
------------------------|----------------------|---------------------------|
------------------------|----------------------|---------------------------|
------------------------|----------------------|---------------------------|
--------9----10--9------|--9----------9--------|----10-----9----10--9------|
--------------------10--|---------10-----------|----8---8--------------10--|


                                                  
----------------------|--------------------------|
----------------------|--------------------------|
----------------------|--------------------------|
----------------------|-----9--------------------|
--9~---------7~-------|--7--7/---9----10--9------|
---------10-----------|----------------------10--|


                                                          
-----------------0--------------|------------------------|
----------------------0---------|------------------------|
------------2--------------2----|------------------------|
-------0------------------------|------------------------|
--------------------------------|--------9----10--9------|
--1-----------------------------|--------------------10--|


                                                       
--------------------------|---------------------------|
--------------------------|---------------------------|
-----------------------7--|---------------------------|
-----9--------9--------7--|-----9---------------------|
-----7--------7-----------|-----7-----9----10--9------|
--0-----x--0-----0--0-----|--0-----x--------------10--|


                                                                              
-------------------------|---------------------------|-----------------------|
-------------------------|---------------------------|-----------------------|
-------------------------|---------------------------|-----------------------|
-------------------------|---------------------------|-----------------------|
-----9------10--------9--|----10-----9----10h-9------|--9h-7--5~-------9-7~--|
--8--8------8---8--8-----|--------8--------------10--|-----------------------|


                                                                               
------------------------|--------------------------|--------------------------|
------------------------|--------------------------|--------------------------|
------------------------|--------------------------|--------------------------|
------------------------|--------------------------|--------------------------|
--------9----10--9------|-----9------10-----10--9--|----10------9--10--9------|
--------------------10--|--8--8------8---8--8------|----8-----------------10--|


                                                       
--------------------------|---------------------------|
--------------------------|---------------------------|
-----9--------------------|--------9------------------|
-----9-----------------9--|--------9------------------|
-----7-----------------7--|--------7--9----10h-9------|
--0-----0--0--0--0--0--0--|--0--0-----------------10--|


                                                                          
-------------------------|--------------------|--------------------------|
-------------------------|--------------------|--------------------------|
-------------------------|--------------------|-----------------------2--|
-------------------------|--------------------|-----------------------3--|
-----9------10--------9--|------10------------|--2--2--2--2--2--2--2--3--|
--8--8------8---8--8--8--|------8-------------|--0--0--0--0--0--0--0--1--|


                                                      
--------------------------|--------------------------|
--------------------------|-----------------------3--|
-----------------------2--|-----------------------0--|
-----------------------0--|-----------------------0--|
--3--3--3--3--3--3--3--0--|-----------------------x--|
--1--1--1--1--1--1--1--2--|--2--2--2--2--2--2--2--3--|


                                                                                
--------------------------|--------------------------|-------------------------|
--------------------------|--------------------------|-------------------------|
--------------------------|-----------------------2--|----------------------0--|
--------------------------|-----------------------2--|-------------2--2--2--x--|
-----------------------7--|--7--7--7--7--7--7--7--0--|----0--0--0--0--0--0--1--|
--3--3--3--3--3--3--3--4--|--4--4--4--4--4--4--4-----|-------------------------|


                                                                    
----------------------|------------------------|-------------------|
----------------------|------------------------|-------------------|
-------------------4--|------4--4--4--4--4--4--|-------------------|
-------------------4--|------4--4--4--4--4--4--|-------------------|
--------1--1-------2--|------2--2--2--2--2--2--|----------------2--|
--------------0-------|------------------------|----------------0--|


                                                                               
-------------------------|-------------------------|--------------------------|
-------------3-----------|-----3-------------------|--------------3-----------|
-------2-----2--------2--|-----2--2----------------|--------2-----2--------2--|
-------2-----0--0--0--2--|-----0--2-----7/-5-------|--------2-----0--0--0--2--|
-------0--0-----------0--|--0-----0-----7/-5----2--|--------0--0-----------0--|
----0--------------------|-----------0----------0--|--0--0--------------------|


                                                                               
-------------------------|--------------------------|-------------------------|
-----3-------------------|--------------3-----------|-----3-------------------|
-----2--2----------------|--------2-----2--------2--|-----2--2----------------|
-----0--2-----7/-5-------|--------2-----0--0--0--2--|-----0--2-----7/-5-------|
--0-----0-----7/-5----2--|--------0--0-----------0--|--0-----0-----7/-5----2--|
-----------0----------0--|--0--0--------------------|-----------0----------0--|


                                                                                
--------------------------|-------------------------|--------------------------|
--------------3-----------|-----3-------------------|--------------3-----------|
--------2-----2--------2--|-----2--2----------------|--------2-----2--------2--|
--------2-----0--0--0--2--|-----0--2-----7/-5-------|--------2-----0--0--0--2--|
--------0--0-----------0--|--0-----0-----7/-5----2--|--------0--0-----------0--|
--0--0--------------------|-----------0----------0--|--0--0--------------------|


                                                                               
-------------------------|--------------------------|-------------------------|
-----3-------------------|--------------3-----------|-----3-------------------|
-----2--2----------------|--------2-----2--------2--|-----2--2----------------|
-----0--2-----7/-5-------|--------2-----0--0--0--2--|-----0--2-----7/-5-------|
--0-----0-----7/-5----2--|--------0--0-----------0--|--0-----0-----7/-5----2--|
-----------0----------0--|--0--0--------------------|-----------0----------0--|


                    
------------------||
------------------||
------------------|| Well Done!!
------------------||
------------------||
------------------||





Comments


Popular Van Halen tabs & chords
And The Candle Will Rock Bass Tabs
Runnin With The Devil Bass Tabs
5150 Tabs
Afu Naturally Wired Intro Tabs
Ain't Talkin Bout Love Tabs
Drop Dead Legs Intro Tabs
Feel Your Love Tonight Tabs
Mean Streets Intro Tabs
Panama Tabs
Pretty Woman 2 Tabs


Song lyrics



↑ Back to top | Tablatures and chords are parodies/interpretations of the original songs. You may use it for private study, scholarship, research or language learning purposes only
© 2014 AZChords.com Contact us | Privacy policy | DMCA | Add/correct tabs | Request tabs | Top 50 tabs