» » »

Van Halen, Humans Being Tabs (ver.4)

Artists:  A B C D E F G H I J K L M N O P Q R S T U V W X Y Z # 

Humans Being Tabs (ver.4)

Van Halen Tabs
 Rating:
4/5 (4 votes)
Humans Being lessons Tabs too difficult? Try these video lessons and learn fast
                Humans Being
                              Van halen
             Written by: Eddie, Sammy, Alex and Michelantony

This song is taken out from the album "The best of Van Halen Vol I" and
is... avery good song...i will only tab the intro which is used in most
of the song....the other part has olready been tabbed so..no need for
tabbing that....so here we go...oh before i forget......dont even think
I will tab the master solos...no way.....

Use distortion...........delay....but just a little
e----------------------------------------------------
b-0-----------------0-----------------0-------------
g-0-----------------0-----------------0------------
d-2----5---7--------2----5---7--------2----5---7---
a-2----5---7--------2----5---7--------2----5---7---
e------3---5---X-X--0----3---5---X-X--0----3---5---

e-------------------------
b-----------3p2----------
g---------0------2--------
d------2-----------2/4---
a----2--------------------
e--0----------------------

e-----------------------------------------------------
b-0---------------0-------------------0-------------
g-0---------------0-------------------0--------------
d-2----5---7------2------5---7--------2------5---7--
a-2----5---7------2------5---7--------2------5---7---
e------3---5-X-X--0---X--3---5--X-X--0--X---3---5---

e-------------------------
b-----------3p2----------
g---------0------2--------
d------2-----------2/4---
a----2--------------------
e--0----------------------

e----------------------------------------------------0--0---0--
b-0---------------0-------------------0--------------0--0---0--
g-0---------------0-------------------0--------------0--0---0--
d-2----5---7------2------5---7--------2------5---7-------------
a-2----5---7------2------5---7--------2------5---7-------------
e------3---5-X-X--0---X--3---5--X-X--0--X---3---5-------------

Repeat several times with verse 1.....then comes the solos......then
again the above part with verse 2 and a bunch of bendings on the
back......chorus........solos again......then the interlude which
already has been tabbed......above part again with verse
3.......chorus.......solos.........above part as the ending part, again
with lots of bendings on the back

Intro
Verse 1
There is just enough____________to make me feel almost guilty
Is that why I get the feel it never seems to you 
Humans Being
Solo
Verse 2
You break this, I´ll brake all that 
you break my balls well I´ll come after 
What you see is like man is expiring
thats what makes us Humans Being
Chorus
Shine on...shine on....
Shine on...shine on....
Solo
Interlude
Solo
Verse 3
Yeah
Some low life flathead scum, incestor
sicker than an idiot asked you  
Wonder why your life is screaming
Wonder why we´re Humans Being 
Shine on...shine on....
Shine on...shine on....
Shine on...shine on....
Shine on...shine on....
Solo
Humans
Humans Being
Thats what makes us
Humans Being
Thats what makes us
Humans Being
Thats what makes us
Humans Being
Thats what makes us
Humans Being
Thats what makes us

Tried to get the lyrics as close as posible but Sammy uses a lot of
efect on his voice so there are parts that are either in blank or
wrong......
            
Submit corrections

comments powered by Disqus
↑ Back to top | Van Halen Tabs for Humans Being. Lyrics for acoustic guitar and electric guitar. Tablatures and chords are parodies/interpretations of the original songs. You may use it for private study, scholarship, research or language learning purposes only