» » »

Ain't Talkin Bout Love Bass tabs (ver.3)

Artists:  A B C D E F G H I J K L M N O P Q R S T U V W X Y Z # 

Ain't Talkin Bout Love Bass tabs (ver.3)

Van Halen
Rating:
0/5 (0 votes)

Hard to play? Try these video lessons and learn fast.
                Come in after drums start

Intro, Chorus, Verse
G|---------------|
D|-----3-5-------|
A|-0030-3--3-2-3-|
E|--------3------|

Bridge (play lightly)
pt1 x4
G|-------------|
D|-----3-5-----|
A|-0030-3------|
E|-------------|

pt2 (play lightly but build)
G|---------------|
D|-----3-5-------|
A|-0030-3--3-2-3-|
E|--------3------|

G|---------------|
D|-----3-5-------|
A|-0030-3--3-2-3-|
E|--------3------|


This is just what I play so feel free to tweak it on your own.
            
Hard to play? Try these video lessons and learn fast. | Correct




comments powered by Disqus
↑ Back to top | Tablatures and chords are parodies/interpretations of the original songs. You may use it for private study, scholarship, research or language learning purposes only