» » »

Van Gogh, Zemlja Cuda Tabs (ver.1)

Artists:  A B C D E F G H I J K L M N O P Q R S T U V W X Y Z # 

Zemlja Cuda Tabs (ver.1)

Van Gogh Tabs
 Rating:
4/5 (4 votes)
Zemlja Cuda lessons Tabs too difficult? Try these video lessons and learn fast
                Van Gogh / Zemlja cuda:    
  
credits: Boris Zivkovic   (walkaway)

Tuning : E A D G B E

Intro:

|0-------0--------------------------------------------------------|
|3h------5-------3p--0-----------------------------------------|
|--------------------------------2h---0--------------------------|
|--------------------------------2h---0-------2------------------|
|-----------------------------------------------2------------------|
|-------------------------------------------------------------------|

Em G Em G Em C Am Hm  fraza 1


Em           G
Napustimo svet,      fraza 1
Em             G
sve dalji od srca         fraza 1
   Em               C
U sumrak kroz plamen,\
Am                Hm             fraza 2
znam odlazi svi(oni)      /


U ovoj noci
Dok hodas uz mene
Znam hiljade ljudi
Koje doziva glas...


refren:
C  D    G    D           G      D    G
I can't help falling in love with you

|-------------------
|------------------
|--------------------------Ovo moze svirati Bass  D----5---4-----2-
|--------------------
|-------------------
|----3---2-----0-----
    You know thet

C  D    G    D            G    D    G
I can't help falling in love with you
G A G Em           G
             aaaaaaaaaaaaa       x2



Senke su svuda
Senke smo mi
Imas li snage (sestro)
svet promeniti

Plivaj dalje i dalje
Nemoj cekati brod
Svi smo deca zemlje
Neko doziva


Ref
aaaaaaaaaaa x3

Outro:

C       G    C               F     C      G
Wise man said only fools rush in
G   C  D    G    D           G       D     G
but I can't help falling in love

       THE END

fraza 1 ide ovako:
--------------------
--------------------
--2-h-0-------------
--2-h-0---2---------
------------2---------
------------0---------

fraza 2 ide ovako
   Em              C                        Am           Hm
|0---------------0-------0---------------0---
|----0-----------1-----------1--1-------1-
|--------0-------0---------------0-------2- dalje samo sviraj Am i Hm  + faza 1
|-----------------2------------------------2--
|-----------------3------------------------0--
|---------------------------------------------
            
Submit corrections

comments powered by Disqus
↑ Back to top | Van Gogh Tabs for Zemlja Cuda. Lyrics for acoustic guitar and electric guitar. Tablatures and chords are parodies/interpretations of the original songs. You may use it for private study, scholarship, research or language learning purposes only