» » »

Van Gogh, Put Tabs (ver.1)

Artists:  A B C D E F G H I J K L M N O P Q R S T U V W X Y Z # 

Put Tabs (ver.1)

Van Gogh Tabs
 Rating:
4/5 (4 votes)
Put lessons Tabs too difficult? Try these video lessons and learn fast
                van gogh 
put




intro:
  D                D                D                E       F
E|----------------|----------------|----------------|----------------|
H|----------------|----------------|----------------|----------------|
G|2---2-2-2---2---|--2-2---2---2---|2---2-2-2---2---|----------------|
D|0---0-0-3---0---|--0-0---3---0---|0---0-0-3---0---|----------------|
A|----------------|----------------|----------------|2-------3-------|
E|----------------|----------------|----------------|0-------1-------|
  


  D                D                D                F       E
E|----------------|----------------|----------------|----------------|
H|----------------|----------------|----------------|----------------|
G|2---2-2-2---2---|--2-2---2---2---|2---2-2-2---2---|----------------|
D|0---0-0-3---0---|--0-0---3---0---|0---0-0-3---0---|----------------|
A|----------------|----------------|----------------|3-------2-------|
E|----------------|----------------|----------------|1-------0-------|
                                                     Ja      sam...
 

  D                D                G                E       F
E|----------------|----------------|----------------|----------------|
H|----------------|----------------|----------------|----------------|
G|2---2-2-2---2---|(2)-------------|----------------|----------------|
D|0---0-0-3---0---|(0)-------------|----------------|----------------|
A|----------------|----------------|5---------------|2-------3-------|
E|----------------|----------------|3---------------|0-------1-------|
  kralj,                     ja sam lopov    i     gad,
  D                D                G                F       E
E|----------------|----------------|----------------|----------------|
H|----------------|----------------|----------------|----------------|
G|2---2-2-2---2---|(2)-------------|----------------|----------------|
D|0---0-0-3---0---|(0)-------------|----------------|----------------|
A|----------------|----------------|5---------------|3-------2-------|
E|----------------|----------------|3---------------|1-------0-------|
      lancima okovan                mrzim tvoj       svet...

verse 1  
  D                D                G                E       F
E|----------------|----------------|----------------|----------------|
H|----------------|6-----------6---|8---------------|---10p8---------|
G|7-------5-------|----7---------7-|----------------|--------10--7---|
D|----5h7-----7---|----------------|----------------|----------------|
A|----------------|----------------|----------------|----------------|
E|----------------|----------------|----------------|----------------|

verse 2
  C                C                ?                ?
E|----------------|----------------|----------------|----------------|
H|----------------|----------------|----------------|----------------|
G|----------------|----------------|----------------|----------------|
D|2---------------|(2)-------------|3---------------|(3)-------------|
A|3---------------|(3)-------------|2---------------|(2)-------------|
E|----------------|----------------|----------------|----------------|
To smo mi,                       za nas...
  
chorus
  E                    D            A                C       D
E|----------------|----------------|----------------|----------------|
H|----------------|----------------|----------------|----------------|
G|----------------|----------------|----------------|----------------|
D|9-------9-------|----7---7-------|----------------|5-------7-------|
A|7-------7-------|----5---5-------|7-------7-------|3-------5-------|
E|----------------|----------------|5-------5-------|----------------|
  put              kojim se         lako             stize   u
  E                    G       A    A                A
E|----------------|----------------|----------------|----------------|
H|----------------|----------------|----------------|----------------|
G|----------------|----------------|----------------|----------------|
D|9-------9-------|----------------|----------------|----------------|
A|7-------7-------|----5-------7---|7-------7-------|7-------7-------|
E|----------------|----3-------5---|5-------5-------|5-------5-------|
  raj...

verse 3 & end
E|----------------|----------------|----------------|----------------|
H|----------------|----------------|----------------|----------------|
G|----------------|----------------|----------------|----------------|
D|----------------|--------7-------|----------------|--------6-------|
A|3h5-5-3-5---3-5-|--3-5-----------|3h5-5-3-5---3-5-|--3-5-----------|
E|----------------|----------------|----------------|----------------|

E|----------------|----------------|----------------|----------------|
H|----------------|----------------|----------------|----------------|
G|----------------|----------------|----------------|----------------|
D|----------------|--------5-------|----------------|----------------|
A|3h5-5-3-5---3-5-|--3-5-----------|3h5-5-3-5---3-5-|----------------|
E|----------------|----------------|----------------|--4----3----2---|

Ja sam kralj
Ja sam lopov i gad
Lancima okovan mrzim tvoj svet
Umno poremecen, novcem opterecen
Teksilno unakazen, ludilom pregazen
Lazem kradem i opijam se

Ja sam kralj
I tako sam glup
Nisam ni svestan koliko sam lud
Umno poremecen, dosadom zarazen
Mentalno zasicen, duhovno osakacen
Gledaj u mene prepoznaces se

To smo mi za nas
Ne postoji put kojim se lako stize u raj
Sve kad se lomi u tebi srecan si ako mu ugledas kraj

 
 
:)
            
Submit corrections

comments powered by Disqus
↑ Back to top | Van Gogh Tabs for Put. Lyrics for acoustic guitar and electric guitar. Tablatures and chords are parodies/interpretations of the original songs. You may use it for private study, scholarship, research or language learning purposes only