» » »

Opasan Ples Tabs (ver.1)

Artists:  A B C D E F G H I J K L M N O P Q R S T U V W X Y Z # 

Opasan Ples Tabs (ver.1)

Van Gogh
Rating:
0/5 (0 votes)
Tabs too difficult? Try these video lessons and learn fast.
                Van Gogh : Opasan Ples





Bass: (verse)
    Cm                    Ab     
G|--------------------------|------------------------|
D|--------------------------|------------------------|
A|--3------------3b-----5/6-|------------------------|
E|---------3--6-----3-------|------------------------|


Ovaj tango za mene, tebe, nju i njega
Je tako opasan ples, po nasu divlju glad
Tako tesko se u nama, lomi daljina koja kida
A umreti je lako, svaki put nebo zna, 
cuje glas, ti si sam, i plasi te do smrti

Ref:
Cm                Fm              Cm            G Cm
Znam zelis da sam tu da hodamo po tlu toplom od suza
Noc kad mene ne bude pomisli da san pada ti na lice
Gde saputace mrak, zastace ti dah, cekaces sama


Instrumental: (refren tema - C harmonic mol skala)
     Cm                        Fm      
E|--------------------------|------------------------|
B|---6/8--------6-----------|--6------6--------------|
G|-----------------8--7--8--|------------8--7--5--7--|
D|--------------------------|------------------------|
A|--------------------------|------------------------|
E|--------------------------|------------------------|

    Cm                     G         Cm    
E|----------------------|----------------------|
B|----------------------|----------------------|
G|--8--------7--5--4----|--5/7--------5--------|
D|----------------------|----------------------|
A|----------------------|----------------------|
E|----------------------|----------------------|
            
Tabs too difficult? Try these video lessons and learn fast.


comments powered by Disqus
↑ Back to top | Tablatures and chords are parodies/interpretations of the original songs. You may use it for private study, scholarship, research or language learning purposes only