>
 >
Kiselina

Kiselina Guitar Tabs

Van Gogh - Kiselina chords, tabs, tablatures, lyrics

Guitar lessons | Add/correct | Request | Top 50 tabs Artists:  A B C D E F G H I J K L M N O P Q R S T U V W X Y Z 0-9

Kiselina Guitar Tabs – Van Gogh

CD, Sheet music, Poster

Do you like Kiselina? Share with your friends now
Tabs
Van Gogh / Kiselina:    
  

  Tema, strofa:
  G5               G5
E|----------------|----------------|
H|----------------|----------------|
G|----------------|----------------|
D|----------------|----------------|
A|5---5-------3---|5---5-------3---|
E|3---3-------1---|3---3-------1---|

  Strofa:
Nisam kao oni, kao oni sto zabavljaju
Nisam kao oni, kao oni sto otimaju

  Prelaz:
G5
Mislim da znam kako mami te glad,
Dis5        
Padas i dizes se danima
C5                                     {tema}
Dok tudje srce tvoje sate kuca nemas nikoga

G5
Cuje se huk iz tela sve jaci 
Dis5
Pazi se gde si pazi ko si s kim si 
F5*                 C5       F5*
Za novac vodim samo jednom gde Bog 
      {tema}     B5 A5 Gis5 {tema}
Peva bluz za nas

  Refren:
            F5 C5 G5   
Izmenicu ti zivot 
Izmesacu ti boje kiselinom 
Izmenicu ti zivot i samo da zavaram glad
F5  C5      G5
Izmenicu ti zivot 
Izmesacu ti boje kiselinom 
Izmenicu ti zivot da zavaram glad, glad, glad

  Prelaz 2:
  G5               G5               G5               G5
E|----------------|----------------|----------------|----------------|
H|----------------|----------------|------------11--|(11)------------|
G|12--12------10--|12--12------10--|12--10----------|----------------|
D|----------------|----------------|----------------|----------------|
A|----------------|----------------|----------------|----------------|
E|----------------|----------------|----------------|----------------|
  Dis5             Dis5             C5               C5
E|----------------|----------------|----------------|----------------|
H|----------------|----------------|------------13--|----11----------|
G|12--12------10--|12--12------10--|12--10----------|----------------|
D|----------------|----------------|----------------|----------------|
A|----------------|----------------|----------------|----------------|
E|----------------|----------------|----------------|----------------|

G5
Puteve sve ljudi su zli
Dis5  
Za sebe samo stvorili 
C5                                    {tema}
Mislim da znas kako mami te mami neki bolji svet 
         B5 C5 D5 {tema}  B5 A5 Gis5 {tema}
Za novac         za novac

  Kraj: F5 C5 G5

  Korisceni akordi:
G5  -35XXXX
Dis5-X68XXX
C5  -X35XXX
F5  -13XXXX
F5* -X 8 10 X X X
B5  -X13XXX
A5  -X02XXX
Gis5-46XXXX
D5  -X57XXX





Comments


Popular Van Gogh tabs & chords
Disem Chords
Buldozer 1 Tabs
Dibuk Tabs
Glas 1 Tabs
Haleluja Tabs
Mama Tabs
Sreca Tabs
Zemlja Cuda Tabs
Juliet Is Flying Blind Ukulele
Ljubav Je Ukulele


Song lyrics



↑ Back to top | Tablatures and chords are parodies/interpretations of the original songs. You may use it for private study, scholarship, research or language learning purposes only
© 2014 AZChords.com Contact us | Privacy policy | DMCA | Add/correct tabs | Request tabs | Top 50 tabs