» » »

Van Gogh, Haleluja Tabs (ver.1)

Artists:  A B C D E F G H I J K L M N O P Q R S T U V W X Y Z # 

Haleluja Tabs (ver.1)

Van Gogh Tabs
 Rating:
4/5 (4 votes)
Haleluja lessons Tabs too difficult? Try these video lessons and learn fast
                Tema:
  F5    B5     G5
E|----------------|----------------|
H|----------------|----------------|
G|----------------|----------------|
D|10----8---------|----------------|
A|8-----8-----10--|----------------|
E|------------10--|----------------|

  Refren 1:
  G5               G5               F5               F5
E|----------------|----------------|----------------|----------------|
H|----------------|----------------|----------------|----------------|
G|----------------|----------------|----------------|----------------|
D|----------------|----------------|----------------|----------------|
A|5-----5-----5---|(5)-------------|3-----3-----3---|(3)-------------|
E|3-----3-----3---|(3)-------------|1-----1-----1---|(1)-------------|
  Bla   bla   bla           kazem   bla   bla   bla           kazem
  C5               C5               C5
E|----------------|----------------|----------------|----------------|
H|----------------|----------------|----------------|----------------|
G|----------------|----------------|----------------|----------------|
D|5-----5-----5---|(5)-------------|(5)-------------|----------------|
A|3-----3-----3---|(3)-------------|(3)-------------|----------------|
E|----------------|----------------|----------------|----------------|
  bla   bla   bla           i tako  stalno me vrti u krug

  Refren 2:
  G5               G5               G5               G5
E|----------------|----------------|----------------|----------------|
H|----------------|----------------|----------------|----------------|
G|----------------|----------------|----------------|----------------|
D|----------------|----------------|----------------|----------------|
A|5-------5-------|5-------5---5---|----5-------5---|5-------5-------|
E|3-------3-------|3-------3---3---|----3-------3---|3-------3-------|
  Daj                                                ljubav
  F5               F5          C5   C5               C5
E|----------------|----------------|----------------|----------------|
H|----------------|----------------|----------------|----------------|
G|----------------|----------------|----------------|----------------|
D|----------------|------------5---|----5-------5---|5-------5-------|
A|3-------3-------|3-------3---3---|----3-------3---|3-------3-------|
E|1-------1-------|1-------1-------|----------------|----------------|
          ona      ne sme      reci             meni

  Kraj refrena 2:
  F                F
E|----------------|----------------|
H|----------------|----------------|
G|----------------|----------------|
D|------3---------|--3---------3---|
A|3-----------3---|--------3-------|
E|----------------|----------------|

  Prelaz:
E|----------------|----------------|----------------|----------------|
H|----------------|----------------|----------------|----------------|
G|----------------|----------------|----------------|--------2p0-----|
D|----------------|----------------|----------------|------------2p0-|
A|----------------|----------------|----------------|----------------|
E|0---3p0-5p0-----|(0)-3p0-5p0-----|(0)-3p0-5p0-----|(0)-3p0---------|

  Solo(pratnja):
  A5               A5               A5               A5
E|----------------|----------------|----------------|----------------|
H|----------------|----------------|----------------|----------------|
G|----------------|----------------|----------------|----------------|
D|----------------|----------------|----------------|----------------|
A|7-------7-------|7-------7---7---|----7-------7---|7-------7-------|
E|5-------5-------|5-------5---5---|----5-------5---|5-------5-------|
  G5               G5          D5   D5               D5
E|----------------|----------------|----------------|----------------|
H|----------------|----------------|----------------|----------------|
G|----------------|----------------|----------------|----------------|
D|----------------|------------7---|----7-------7---|7-------7-------|
A|5-------5-------|5-------5---5---|----5-------5---|5-------5-------|
E|3-------3-------|3-------3-------|----------------|----------------|

  Kraj:
  G                G                G                G
E|----------------|----------------|----------------|----------------|
H|----------------|----------------|----------------|----------------|
G|----------------|----------------|----------------|----------------|
D|------5---------|--5---------5---|------5---------|--5---------5---|
A|5-----------5---|--------5-------|5-----------5---|--------5-------|
E|----------------|----------------|----------------|----------------|
  A                A
E|----------------|----------------|
H|----------------|----------------|
G|----------------|----------------|
D|----------------|----------------|
A|7---------------|(7)-------------|
E|5---------------|(5)-------------|

Haleluja, sve mi se leluja
Skamenjen mozda bicu njen
Hodam teskih nogu kao stenje
Lovim strast, i ona lovi mene

Pobuna srca, ljubav boli
Pobuna srca, telo se bori
Kakva radost zaboravljam da znam
Jos postojim
Ja se nje ne bojim

Bla bla bla, kaze bla bla bla
Kaze bla bla bla i tako stalno me vrti u krug

Slusaj sad

Ti postojis nemoj da se bojis
Hrabro linjaj pohotne misli
Dan po dan, oci u oci
I noc za noc

Samo ne sme reci
Daj ljubav
Ona ne sme reæi meni
Daj, ljubav
Ona ne sme reci samo
Daj ljubav

Haleluja, sve ti se leluja
Skamenjen mozda bices njen
U dubini tela, djavo ne da mira
Samo hrabro glava bira

Pobuna srca, ljubav boli
Pobuna srca
Ona ne sme reci
Daj ljubav
Ona ne sme reci meni
Daj ljubav
Ona ne sme reci tebi
Daj ljubav
Ona ne sme reci samo
Daj ljubav
            
Submit corrections

comments powered by Disqus
↑ Back to top | Van Gogh Tabs for Haleluja. Lyrics for acoustic guitar and electric guitar. Tablatures and chords are parodies/interpretations of the original songs. You may use it for private study, scholarship, research or language learning purposes only