>
 >
Blakes Got A New Face

Blakes Got A New Face Bass Tabs

Vampire Weekend - Blakes Got A New Face chords, tabs, tablatures, lyrics

Guitar lessons | Add/correct | Request | Top 50 tabs Artists:  A B C D E F G H I J K L M N O P Q R S T U V W X Y Z 0-9

Blakes Got A New Face Bass Tabs – Vampire Weekend

CD, Sheet music, Poster

Do you like Blakes Got A New Face? Share with your friends now
Bass Tabs
Friday 25th September 

first two bars: no bass

G---------
D---------
A-0-0-0--- x 4
E---------

G------------------------------------
D------------------------------------
A-0-0-0-57-0-0-0-74-0-0-0-57-0-0-0--- x 2
E------------------------------------

(0:30)
G---------
D---------
A-0-0-0--- x 4
E---------

G------------------------------------
D------------------------------------
A-0-0-0-57-0-0-0-74-0-0-0-57-0-0-0--- x 3
E------------------------------------

(1:05)
four bars: no bass

G---------
D---------
A-0-0-0--- x 2
E---------

G------------------
D------------------
A-0-0-5----7-7-0--- x 2
E------------------

G------------------------------------
D------------------------------------
A-0-0-0-57-0-0-0-74-0-0-0-57-0-0-0--- x 3
E------------------------------------

G------------------------------------
D------------------------------------
A-0-0-0-57-0-0-0-74-0-0-0-57-0------- 
E------------------------------------

(2:02)
four bars: no bass

G---------
D---------
A-0-0-0--- x 2
E---------

G------------------
D------------------
A-0-0-5----7-7-0--- x 2
E------------------

G------------------------------------
D------------------------------------
A-0-0-0-57-0-0-0-74-0-0-0-57-0-0-0--- x 2
E------------------------------------

(2:41)
G------------------------------------
D------------------------------------
A-0-0-0----0-0-0-74-0-0-0----0-0-0--- 
E------------------------------------

G---------
D---------
A-0-0-0--- x 3
E---------

G---------
D---------
A-0-------
E---------

four bars: no bass

end with:
G---------
D---------
A-0-0-0--- 
E---------

please comment with any feedback :)





Comments


Popular Vampire Weekend tabs & chords
California English Bass Tabs
Holiday Chords
Horchata 2 Chords
I Stand 1 Chords
Ladies Of Cambridge 1 Chords
Oxford Comma 3 Chords
Little Giant Intro Tabs
Mansard Roof Tabs
M79 Ukulele
Run Ukulele


Song lyrics



↑ Back to top | Tablatures and chords are parodies/interpretations of the original songs. You may use it for private study, scholarship, research or language learning purposes only
© 2014 AZChords.com Contact us | Privacy policy | DMCA | Add/correct tabs | Request tabs | Top 50 tabs