>
 >
Showdown

Showdown Guitar Tabs

Valient Thorr - Showdown chords, tabs, tablatures, lyrics

Guitar lessons | Add/correct | Request | Top 50 tabs Artists:  A B C D E F G H I J K L M N O P Q R S T U V W X Y Z 0-9

Showdown Guitar Tabs – Valient Thorr

CD, Sheet music, Poster

Do you like Showdown? Share with your friends now
Tabs
ok its a start, hopefully someone can help with the insane fill#1 and help patch up fill
was wingin it near the end), neways this band rules, and i hope to see them at Warped!

Guitar 1 Intro-
e[--------------------------------]
b[--------------------------------]
g[--------------------------------]
d[---0-----0-00---0-0----0-00-----]
a[---0-----0-00---0-0----0-00-----]
d[---0-----0-00---0-0----0-00-----]

Guitar 2 Intro-

e[-------------------------------------|
b[-------------------------------------|
g[-------------------------------------|
d[-------------------------------------|X5
a[-------------------------------------|
d[-0-0h19p0h20p0h17p0h19p0h15p017p0h14-|

Intro Part2-Guitar 1-0:07

e[------|------|-----|-----|
b[------|------|-----|-----|
g[--7---|------|-----|-----|
d[--7~--|--10~-|--8~-|--7~-|X2
a[--5~--|--10~-|--8~-|--7~-|
d[--0~--|--10~-|--8~-|--7~-|

Guitar 2 on bottom and guitar 3 on top(im pretty sure there is a third guitar for this part.......)
e[---------------------------------------]
b[---------------------------------------]
g[---------------------------------------]
d[-0-0h19p0h20p0h17p0h19p0h15p0h17p0h14--]X8
a[---------------------------------------]
d[-0-0h19p0h20p0h17p0h19p0h15p0h17p0h14--]

Guitar 1 Verse-0:23

e[-----|-----|--------------------------------------|
b[-----|-----|--------------------------------------|
g[--7~-|--5~-|---7---75-5---57-7---75-5-------------|
d[--7~-|--5~-|X2-7---75-5---57-7---75-5---pickslide-|
a[--5~-|--3~-|---5---53-3---35-5---53-3-------------|
d[--0~-|-----|--------------------------------------|

e[-----|-----|-----------|
b[-----|-----|-----------|
g[--7~-|--5~-|----3~-5~--|
d[--7~-|--5~-|X2--3~-5~--|
a[--5~-|--3~-|----1~-3~--|
d[--0~-|-----|-----------|

               v-strumming not shown-v
e[-----|-----|-------------------|
b[-----|-----|-------------------|
g[--7~-|--5~-|---2-3-2-5-2-3-2-5~|
d[--7~-|--5~-|X2-2-3-2-5-2-3-2-5~|
a[--5~-|--3~-|---0-1-0-3-0-1-0-3~|
d[--0~-|-----|-------------------|
Replay:
Intro Part 2
Verse
Insane Guitar Fill#2(this is pretty unaccurate....)
e[--/10-10--8-----/10-8----8h10--12h13p12p10h12p10---10--|
b[-------------10-------10-------------------------13----|
g[-------------------------------------------------------|
d[-------------------------------------------------------|
a[-------------------------------------------------------|
d[-------------------------------------------------------|

e[10-10--10-------13b*-------12b-12b-12b-10-------13b*--|
b[----------13-10------13-10----------------13-10-------|
g[------------------------------------------------------|
d[------------------------------------------------------|
a[------------------------------------------------------|
d[------------------------------------------------------|

e[---12h13p12-12-10--12h13p12-12-10--12h13p12-12-10-12-13-15-13-15-|
b[-----------------------------------------------------------------|
g[-----------------------------------------------------------------|
d[-----------------------------------------------------------------|
a[-----------------------------------------------------------------|
d[-----------------------------------------------------------------|
              V-notes are spaced out, but its so fast any wanking will do!
e[--13h15p13-12-13-15-10-12-13-12-13-15-13-15-17-15-17-18-17-18-20-20*bbbr-|
b[-------------------------------------------------------------------------|
g[-------------------------------------------------------------------------|
d[-------------------------------------------------------------------------|
a[-------------------------------------------------------------------------|
d[-------------------------------------------------------------------------|

e[--20-2020-18-17h18p17\15h17p15\13h15p13\12h13p12\10h12p10------------|
b[----------------------------------------------------------13p12p10---|
g[---------------------------------------------------------------------|
d[---------------------------------------------------------------------|
a[---------------------------------------------------------------------|
d[---------------------------------------------------------------------|

e[-----------10-12-1213-12-13~-15~-17~-18~-20b-20b-20b-20b-20b~~--|
b[---13hb-13------------------------------------------------------|
g[----------------------------------------------------------------|
d[----------------------------------------------------------------|
a[----------------------------------------------------------------|
d[----------------------------------------------------------------|
Bride-Guitar 1-2:12     1st time        2nd Time
e[-----------------|-------------|------------------|
b[-----------------|-------------|------------------|
g[--7-7---5-7-5-2--|-7-7--5-10-9-|----10-9-7-5-2-5--|
d[--7-7---5-7-5-2--|-7-7--5-10-9-|X2--10-9-7-5-2-5--|
a[--5-5---3-5-3-0--|-5-5--3-8--7-|----8--7-5-3-0-3--|
d[-----------------|-------------|------------------|
Solo Guitar
e[----22~-20--17h18p17----------|
b[---------------------18-------|
g[------------------------19~---|
d[------------------------------|
a[------------------------------|
d[------------------------------|

after the bridge guitar goes through a few times its back to the intro parts 1 and 2
its just this over and over slowing down each time...
e[-----------------------------------------|
b[-----------------------------------------|
g[---7~--5~--------------------------7~----|
d[---7~--5~--until-finally-ending-on-7~----|
a[---5~--3~--------------------------5~----|
d[-----------------------------------0~----|





Comments


Popular Valient Thorr tabs & chords
Dont Stop Tabs
Exit Strategy Intro Tabs
Fall Of Pangea Tabs
Fall Of Pangea 1 Tabs
Goveruptcy Intro Tabs
Heatseeker Intro Tabs
Heatseeker Intro 1 Tabs
Man Behind The Curtain Intro Tabs
Palmreader Intro Tabs
Vernal Equinox Tabs


Song lyrics



↑ Back to top | Tablatures and chords are parodies/interpretations of the original songs. You may use it for private study, scholarship, research or language learning purposes only
© 2014 AZChords.com Contact us | Privacy policy | DMCA | Add/correct tabs | Request tabs | Top 50 tabs