>
 >
Damn Good

Damn Good Guitar Tabs

Vai Steve - Damn Good chords, tabs, tablatures, lyrics

Guitar lessons | Add/correct | Request | Top 50 tabs Artists:  A B C D E F G H I J K L M N O P Q R S T U V W X Y Z 0-9

Damn Good Guitar Tabs – Vai Steve

CD, Sheet music, Poster

Do you like Damn Good? Share with your friends now
TabsTabs v2

For this song,drop D tuning!
you must tune down 1 step your E-string!!
So,you obtain a D-string for the first string!!!

            let ring....
                           s               s
E---------|------0------|---------0----------------------|-
B---------|------1------|-------3---3---3-----1----------|-
G---------|------0------|-----0--------------------------|-
D---------|------2------|-2/4---------4---4\2-2----------|-
A-------5-|----0--------|------------------------------5-|-
D-0h5h7---|-0-----------|------------------------0h5h7---|-


  let ring....
                 s               s
E------0------|---------0----------------------|-
B------1------|-------3---3---3----------------|-
G------0------|-----0--------------------------|-
D------2------|-2/4---------4---4\2------------|-
A----0--------|------------------------------5-|-
D-0-----------|------------------------0h5h7---|-


  let ring....
                 s               s
E------0------|---------0----------------------|-
B------1------|-------3---3---3-----1----------|-
G------0------|-----0--------------------------|-
D------2------|-2/4---------4---4\2-2----------|-
A----0--------|------------------------------5-|-
D-0-----------|------------------------0h5h7---|-


  let ring....
                 s               s
E------0------|---------0----------------------|-
B------1------|-------3---3---3----------------|-
G------0------|-----0--------------------------|-
D------2------|-2/4---------4---4\2------------|-
A----0--------|------------------------------5-|-
D-0-----------|------------------------0h5h7---|-


     let ring.......      let ring....... 
     *
E----x--0------0-----|----3--0-----0------|-
B----3----3------3---|----3----3-----3----|-
G----5------5------5-|----5------5------5-|-
D----5---------------|----5---------------|-
A-0------------------|-3------------------|-
D--------------------|--------------------|-


  let ring..........   

E----3--3------------|----7-7--5-5--------|-
B----5----5-----5----|----8-8--7-7--------|-
G----5------5------5-|----9-9--7-7--------|-
D----3--------5------|----7----7-7--------|-
A----3---------------|--------------------|-
D-3------------------|-0------------------|-


     let ring.......      let ring....
     *
E----x--0------0-----|----3--0-----0------|-
B----3----3------3---|----3----3-----3----|-
G----5------5------5-|----5------5------5-|-
D----5---------------|----5---------------|-
A-0------------------|-3------------------|-
D--------------------|--------------------|-

* play both the ghost note and the note on the B-string with the same finger (forefinger)


  let ring..........         **       ***       **          *** 

E----3--3------------|--------------------|-------------|--
B----5----5-----5----|--------------------|-------------|--
G----5------5------5-|--------------------|-------------|--
D----3--------5------|--------------------|-------------|--
A----3---------------|-9/10------12\9-----9\7-5-----|-7\5-3----------|--
D-3------------------|------------------------------|----------------|--

**  low to high
*** high to low



If you have any suggestions or corrections to do,e-mail me!!!!!



' - bend              example:-15'-----`(15)
` - release                   bend     release to original note
^ - bend and release                 
(2) - ghost note         AH - Artificial Harmonic
X - percussive sound     P - Pull-off
/ - slide up             H - Hammer-on
\ - slide down           trem. - tremolo (whammy) bar
~ - vibrato
.. - note held           Note: Please read EVERYTHING above the staff
PM - palm muted                as well as in it!!





Comments


Popular Vai Steve tabs & chords
Angel Food Tabs
Bad Horsie (Solo) Tabs
Ballerina 12 2 Tabs
Christmas Time Is Here Tabs
Fever Dream Tabs
Genocide 2 Tabs
Hand On Heart 1 Tabs
Here And Now Tabs
The Duel Tabs
Voodoo Acid Tabs


Song lyrics



↑ Back to top | Tablatures and chords are parodies/interpretations of the original songs. You may use it for private study, scholarship, research or language learning purposes only
© 2014 AZChords.com Contact us | Privacy policy | DMCA | Add/correct tabs | Request tabs | Top 50 tabs