>
 >
Cold Demons 1

Cold Demons 1 Guitar Tabs

Vader - Cold Demons 1 chords, tabs, tablatures, lyrics

Guitar lessons | Add/correct | Request | Top 50 tabs Artists:  A B C D E F G H I J K L M N O P Q R S T U V W X Y Z 0-9

Cold Demons 1 Guitar Tabs – Vader

CD, Sheet music, Poster

Do you like Cold Demons 1? Share with your friends now
TabsTabs v2
#------------------------------------------------------------------------------##

                                  "COLD DEMONS"
                              As recorded by VADER
                  (From the 2000 Album "LITANY" [METAL BLADE 2000])

                            TABULATURE LEGEND:
                   " - tremolo             h - hammer on           
                   ~ - vibrato             \ - slide down
                   p - pull off            / - slide down
                  tr - tremolo picking     ^ - pinch harmonics     
                   = - sustained note      b - bend string         
                p.m. - palm muting         t - tapping

Tuning is D [D, G, C, F, A, D]


Tremolo all notes...

[Intro]
||------------------------------[x3]-||---------------------------------|
||o---------------------------------o||---------------------------------|
||-----------------------------------||---------------------------------|
||-----------------------------------||---------------------------------|
||o---------------------------------o||---------------------------------|
||-----------------------------------||---------------10\---------------|
|                                     |                                 |
||-----------------------------------||---------------------------------|
||o---------------------------------o||---------------------------------|
||-----------------------------------||---------------------------------|
||-----------------------------------||---------------------------------|
||o---------------------------------o||---------------------------------|
||--0-0-0-0-0-0-0-0-1-1-1-1-4-4-4-4--||-0-0-0-0-0-0-0-0-1-1-1-1-4-4-4-4-|

[Riff 1]
||------------------------------[x7]-||----------------------------------|
||o---------------------------------o||----------------------------------|
||-----------------------------------||----------------------------------|
||-----------------------------------||----------------------------------|
||o---------------------------------o||-----------------3-3-3-3-2-2-2-2--|
||--0-0-0-0-0-0-0-0-1-1-1-1-4-4-4-4--||-0-0-0-0-4-4-4-4------------------|


[Riff 2 (x3)]                                        
||--||------------------------------[x3]-||-----------------------------------||
||o-||o---------------------------------o||----------------------------------o||
||--||-----------------------------------||-----------------------------------||
||--||-----------------------------------||-----------------------------------||
||o-||o---------5-5-5-5-7-7-7-7---------o||---------6-6-6-6-8-8-8-8-6-6-6-6--o||
||--||--5-5-5-5-----------------6-6-6-6--||-5-5-5-5---------------------------||

[...continue]
|---------------------------------|-----------------------------------|
|---------------------------------|-----------------------------------|
|---------------------------------|-----------------------------------|
|---------------------------------|-----------------------------------|
|---------5-5-5-5-7-7-7-7---------|---------5-5-5-5-4-4-4-4-----------|
|-5-5-5-5-----------------6-6-6-6-|-5-5-5-5-----------------5-5-5-5---|

[Outro 1]
|---------------------------------|-
|---------------------------------|-
|---------------------------------|-
|---------------------------------|-
|---------------------------------|-
|-6-6-6-6-6-6-6-6-5-5-5-5-5-5-5-5-|-
|                                 |
|---------------------------------|-
|---------------------------------|-
|---------------------------------|-
|---------------------------------|-
|-8-------------------------------|-
|-6-------------------------------|-


-|---------------------------------|---------------------------------|
-|---------------------------------|---------------------------------|
-|---------------------------------|---------------------------------|
-|---------------------------------|---------------------------------|
-|-4-4-4-4-4-4-4-4-----------------|---------------------------------|
-|-----------------5-5-5-5-5-5-5-5-|-6-6-6-6-6-6-6-6-8-8-8-8-8-8-8-8-|
 |                                 |                                 |
-|---------------------------------|---------------------------------|
-|---------------------------------|---------------------------------|
-|---------------------------------|---------------------------------|
-|---------------------------------|---------------------------------|
-|---------------------------------|---------------------------------|
-|---------------------------------|---------------------------------|

[Riff 3a ]
||----------------------------------|-
||o---------------------------------|-
||----------------------------------|-
||----------------------------------|-
||o---------------------------------|-
||--1-1-1-1-1-1-1-1-0-0-0-0-0-0-0-0-|-

                                    3x
-|-----------------------------------||------------------------------------|
-|----------------------------------o||------------------------------------|
-|-----------------------------------||------------------------------------|
-|-----------------------------------||------------------------------------|
-|----------------------------------o||-----------------2-2-2-2-3-3-3-3----|
-|-6-6-6-6-6-6-6-6-3-3-3-3-3-3-3-3---||-1-1-1-1-1-1-1-1--------------------|

[Riff 2b]
||------------------------------[x3]-||------------------------------------|-
||o---------------------------------o||------------------------------------|-
||-----------------------------------||------------------------------------|-
||-----------------------------------||------------------------------------|-
||o---------5-5-5-5-7-7-7-7---------o||---------6-6-6-6-8-8-8-8-6-6-6-6----|-
||--5-5-5-5-----------------6-6-6-6--||-5-5-5-5----------------------------|-

-||------------------------------[x3]-||----------------------------------|
-||o---------------------------------o||----------------------------------|
-||-----------------------------------||----------------------------------|
-||-----------------------------------||----------------------------------|
-||o---------5-5-5-5-7-7-7-7---------o||---------5-5-5-5-4-4-4-4----------|
-||--5-5-5-5-----------------6-6-6-6--||-5-5-5-5-----------------5-5-5-5--|

[Riff 3b (x4)]
||----------------------------------|-----------------------------------||
||o---------------------------------|----------------------------------o||
||----------------------------------|-----------------------------------||
||----------------------------------|-----------------------------------||
||o---------------------------------|----------------------------------o||
||--1-1-1-1-1-1-1-1-0-0-0-0-0-0-0-0-|-6-6-6-6-6-6-6-6-3-3-3-3-3-3-3-3---||

[Outro 2]                           
||------------------------------[x4]-||-||-------------------------------[x3]-||
||o---------------------------------o||-||o----------------------------------o||
||-----------------------------------||-||------------------------------------||
||-----------------------------------||-||------------------------------------||
||o---------------------------------o||-||o----------------------------------o||
||-----------------------------------||-||--0-0-0-0-0-0-0-0-1-1-1-1-4-4-4-4---||
|                                     | |                                      |
||-----------------------------------||-||------------------------------------||
||o---------------------------------o||-||o----------------------------------o||
||-----------------------------------||-||------------------------------------||
||-----------------------------------||-||------------------------------------||
||o---------------------------------o||-||o----------------------------------o||
||--0-0-0-0-0-0-0-0-1-1-1-1-4-4-4-4--||-||--0-0-0-0-0-0-0-0-1-1-1-1-4-4-4-4---||

[...continue] /both guitars/
-|---------------------------------||----------------------------------|
-|---------------------------------||o---------------------------------|
-|---------------------------------||----------------------------------|
-|---------------------------------||----------------------------------|
-|---------------------------------||o---------------------------------|
-|-0-0-0-0-4-4-4-4-3-3-3-3-2-2-2-2-||--1-1-1-1-1-1-1-1-0-0-0-0-0-0-0-0-|

                                   3x
|----------------------------------||----|
|---------------------------------o||----|
|----------------------------------||----|
|----------------------------------||----|
|---------------------------------o||----|
|-6-6-6-6-6-6-6-6-3-3-3-3-3-3-3-3--||----|

[Outro 3]
|---------------------------------|-----------------------------------|
|---------------------------------|-----------------------------------|
|---------------------------------|-----------------------------------|
|---------------------------------|-----------------------------------|
|---------------------------------|-----------------3-3-3-3-2-2-2-2---|
|-1-1-1-1-1-1-1-1-0-0-0-0-0-0-0-0-|-6-6-6-6-6-6-6-6-------------------|

[Riff 2c (x3)]
||--||------------------------------[x3]-||-----------------------------------||
||o-||o---------------------------------o||----------------------------------o||
||--||-----------------------------------||-----------------------------------||
||--||-----------------------------------||-----------------------------------||
||o-||o---------5-5-5-5-7-7-7-7---------o||---------6-6-6-6-8-8-8-8-6-6-6-6--o||
||--||--5-5-5-5-----------------6-6-6-6--||-5-5-5-5---------------------------||

[...continue]
||------------------------------[x3]-||----------------------------------|
||o---------------------------------o||----------------------------------|
||-----------------------------------||----------------------------------|
||-----------------------------------||----------------------------------|
||o---------5-5-5-5-7-7-7-7---------o||---------5-5-5-5-4-4-4-4----------|
||--5-5-5-5-----------------6-6-6-6--||-5-5-5-5-----------------5-5-5-5--|

[Drums fill]                       [Riff 3c]
|----------|---------|-----------||----------------------------------
|----------|---------|-----------||o---------------------------------
|----------|---------|-----------||----------------------------------
|----------|---------|-----------||----------------------------------
|-8--------|---------|-----------||o---------------------------------
|-6--------|---------|-------9\--||--1-1-1-1-1-1-1-1-0-0-0-0-0-0-0-0-

-----------------------------[x3]-||-----------------------------------|
---------------------------------o||-----------------------------------|
----------------------------------||-----------------------------------|
----------------------------------||-----------------------------------|
---------------------------------o||-----------------2-2-2-2-3-3-3-3---|
-6-6-6-6-6-6-6-6-3-3-3-3-3-3-3-3--||-1-1-1-1-1-1-1-1-------------------|

[RIFF 2c]

[Outro 4]
||------------------------------[x4]-||-||-------------------------------[x3]-||
||o---------------------------------o||-||o----------------------------------o||
||-----------------------------------||-||------------------------------------||
||-----------------------------------||-||------------------------------------||
||o---------------------------------o||-||o----------------------------------o||
||-----------------------------------||-||--0-0-0-0-0-0-0-0-1-1-1-1-4-4-4-4---||
|                                     | |                                      |
||-----------------------------------||-||------------------------------------||
||o---------------------------------o||-||o----------------------------------o||
||-----------------------------------||-||------------------------------------||
||-----------------------------------||-||------------------------------------||
||o---------------------------------o||-||o----------------------------------o||
||--0-0-0-0-0-0-0-0-1-1-1-1-4-4-4-4--||-||--0-0-0-0-0-0-0-0-1-1-1-1-4-4-4-4---||

                                   [Riff 2d (x3)]
|---------------------------------||--||-------------------------------[x3]-||-
|---------------------------------||o-||o----------------------------------o||-
|---------------------------------||--||------------------------------------||-
|---------------------------------||--||------------------------------------||-
|-----------------3-3-3-3-2-2-2-2-||o-||o---------5-5-5-5-7-7-7-7----------o||-
|-0-0-0-0-4-4-4-4-----------------||--||--5-5-5-5-----------------6-6-6-6---||-

-|----------------------------------||-||-------------------------------[x3]-||
-|---------------------------------o||-||o----------------------------------o||
-|----------------------------------||-||------------------------------------||
-|----------------------------------||-||------------------------------------||
-|---------6-6-6-6-8-8-8-8-6-6-6-6-o||-||o---------5-5-5-5-7-7-7-7----------o||
-|-5-5-5-5--------------------------||-||--5-5-5-5-----------------6-6-6-6---||

[Ending]
|---------------------------------|-----------|----------|
|---------------------------------|-----------|----------|
|---------------------------------|-----------|----------|
|---------------------------------|-----------|----------|
|---------5-5-5-5-4-4-4-4---------|-3--2------|-6--5-----|
|-5-5-5-5-----------------5-5-5-5-|-1--0------|-4--3-----|

END OF SONG





Comments


Popular Vader tabs & chords
Xepher Bass Tabs
Carnal 1 Tabs
Foetus God Tabs
Litany Tabs
Outbreak Of Evil Tabs
Reborn In Flames Tabs
Reign Forever World 1 Tabs
Shadowfear Tabs
Sothis Tabs
Xeper Tabs


Song lyrics



↑ Back to top | Tablatures and chords are parodies/interpretations of the original songs. You may use it for private study, scholarship, research or language learning purposes only
© 2014 AZChords.com Contact us | Privacy policy | DMCA | Add/correct tabs | Request tabs | Top 50 tabs