» » »

Oh, My Guard Tabs (ver.1)

Artists:  A B C D E F G H I J K L M N O P Q R S T U V W X Y Z # 

Oh, My Guard Tabs (ver.1)

Useless Id
Rating:
0/5 (0 votes)

Tabs too difficult? Try these video lessons and learn fast.
                
Note              : b = bend, ~ = hold note 
Tuning            : Standard


[Intro]
e|-----------------------------------|
B|-----------2----------2-0----------|
G|-1~---4-2----1-1h2-----------------|
D|--------------------4-----6-4-2-6--|
A|-----------------------------------|
E|-----------------------------------|

e|-------10-13-10-----------12-15----12--------------------------|
B|----10-----------10----12------------12-14b-14-12---------10---|
G|-10------------------12---------------------------12-10-12--10-|
D|---------------------------------------------------------------|
A|---------------------------------------------------------------|
E|---------------------------------------------------------------|

:I no that this is only the intro, but there are no other tabs for this that i can find
so im sure that you can work out then chords, thannx, email if theres any problems, Dan
            
Tabs too difficult? Try these video lessons and learn fast.




comments powered by Disqus
↑ Back to top | Tablatures and chords are parodies/interpretations of the original songs. You may use it for private study, scholarship, research or language learning purposes only