» » »

Kiss Me Kill Me Tabs (ver.1)

Artists:  A B C D E F G H I J K L M N O P Q R S T U V W X Y Z # 

Kiss Me Kill Me Tabs (ver.1)

Useless Id
Rating:
0/5 (0 votes)

Hard to play? Try these video lessons and learn fast.
                -------------------------------------------------------------------------------
                             Kiss Me, Kill Me - Useless ID
-------------------------------------------------------------------------------

Tuning: Standarddd

Yeah, theirs not many Useless ID tabs out there and I really wanted to play the songs. 
I figured a few out by myself, and thought I should tab them too.

Verses
I'm not gonna write the rhythm, only the chords, just listen to the song!
e|--------------------------------------------------------------------------|
B|--------------------------------------------------------------------------|
G|--6--------6-------------------6------------------------------------------|
D|--6-6-8----6-6-4----8-3-4-6----6-6----x2, but end on--7-------------------|
A|--4-6-8----4-6-4----8-3-4-6----4-6--------------------7-------------------|
E|----4-6------4-2----6-1-2-4------4--------------------5-------------------|

Chorus
e|--------------------------------------------------------------------------|
B|--------------------------------------------------------------------------|
G|--7---4------7---4--------------------------------------------------------|
D|--7-7-4-5----7-4-4-5----x2---5-7------------------------------------------|
A|--5-7-2-5----5-4-2-5---------5-7------------------------------------------|
E|----5---3------2---3---------3-5------------------------------------------|

Bridge
e|--------------------------------------------------------------------------|
B|--------------------------------------------------------------------------|
G|--4---------------------4-7----------7------------------------------------|
D|--4-4-5--x3, then--7----4-7----2-4-5-7------------------------------------|
A|--2-4-5------------7----2-5----2-4-5-5------------------------------------|
E|----2-3------------5-----------0-2-3--------------------------------------|
                                 x x x                     x = palm mute obv

Solo
e|---------------------------------------------------------------------------|
B|-33333335-22222223-555333223----77777778-55555557-101010888778-------------|
G|---------------------------------------------------------------------------|
D|---------------------------------------------------------------------------|
A|---------------------------------------------------------------------------|
E|---------------------------------------------------------------------------|

Sorry I couldn't be bothered to do the rhythm, but it just takes too long. Should be 
accurate. Sounds perfect when I play it :/
            
Hard to play? Try these video lessons and learn fast. | Correct




comments powered by Disqus
↑ Back to top | Tablatures and chords are parodies/interpretations of the original songs. You may use it for private study, scholarship, research or language learning purposes only