» » »

Kiss Me Kill Me Bass tabs (ver.1)

Artists:  A B C D E F G H I J K L M N O P Q R S T U V W X Y Z # 

Kiss Me Kill Me Bass tabs (ver.1)

Useless Id
Rating:
5/5 (1 vote)

Hard to play? Try these video lessons and learn fast.
                ++++++++++++++++++++++++++++++++
| Useless ID- Kiss Me. Kill Me |
++++++++++++++++++++++++++++++++

EADG

Verse
"Tell me, tell me.."
1.
G|-----------------|
D|-----------------|
A|-44444-----------|
E|-------4-666-644-|

"Listen to The Cure.."
2.
G|-----------------|
D|-----------------|
A|-44444-----------|
E|-------4-644-422-|

"Think about the day.."
3.
G|--------------------------------------|
D|--------------------------------------|
A|---------------------444444-44--------|
E|-6666-4444-2222-4444-----------4444-4-|

"Love me in a way.."
4.
G|-----------------|
D|-----------------|
A|-44444-----------|
E|-------4-666-644-|

"Kill me in a way.."
5.
G|-----------------|
D|-----------------|
A|-44444-----------|
E|-------4-644-422-|

"Light me..."
6.
G|--------------------|
D|--------------------|
A|--------------------|
E|-6666-4444-3333-555-|

Chorus
"Don't wanna kiss like this.."  
7.
G|-------------------------------------|
D|-------------------------------------|
A|-55555555-00000000-22222222----------|
E|----------------------------33333333-|

"With every day we miss.."
8.
G|-------------------------------------|
D|-------------------------------------|
A|-55555555----------22222222----------|
E|----------22222222----------33333333-|

"Don't wanna kiss like this.."  
9.
G|-------------------------------------|
D|-------------------------------------|
A|-55555555-00000000-22222222----------|
E|----------------------------33333333-|

"With every day we miss.."
10.
G|-------------------------------------|
D|-------------------------------------|
A|-55555555----------22222222-2--------|
E|----------22222222------------3333-5-|

Verse
"Meet me in the.."
11.
G|----|
D|----|
A|-4x-|
E|----|

"I'll take you to a place.."
12.
G|-----------------|
D|-----------------|
A|-44444-----------|
E|-------4-644-422-|

"We can think about the day.."
13.
G|--------------------------------------|
D|--------------------------------------|
A|---------------------444444-44--------|
E|-6666-4444-2222-4444-----------4444-4-|

"Gimme, gimme magic.."
14.
G|-----------------|
D|-----------------|
A|-44444-----------|
E|-------4-666-644-|

"These past few weeks.."
15.
G|-----------------|
D|-----------------|
A|-44444-----------|
E|-------4-644-422-|

"Lets give it a rest.."
16.
G|--------------------|
D|--------------------|
A|--------------------|
E|-6666-4444-3333-555-|

Chorus
"Don't wanna kiss like this.." 
17.
G|-------------------------------------|
D|-------------------------------------|
A|-55555555-00000000-22222222----------|
E|----------------------------33333333-|

"With every day we miss.."
18.
G|-------------------------------------|
D|-------------------------------------|
A|-55555555----------22222222----------|
E|----------22222222----------33333333-|

"Don't wanna kiss like this.."  
19.
G|-------------------------------------|
D|-------------------------------------|
A|-55555555-00000000-22222222----------|
E|----------------------------33333333-|

"With every day we miss.."
20.
G|-------------------------------------|
D|-------------------------------------|
A|-55555555----------22222222-2--------|
E|----------22222222------------3333-5-|

Bridge
"Send me another letter.."
21.
G|-------------------------------------|
D|-------------------------------------|
A|-222-------222-------222-------------|
E|-----22-3~-----22-3~-----22-333-5-55-|

"Why do we always.." 
22.
G|--------------------------------------------------|
D|---------------4444-----------------------------5~|
A|-22222-020-5555------------------------22222222---|
E|--------------------555555555-22222222------------|

Finish with the chorus

"With every day we miss.."
23.
G|-------------------------------------|
D|-------------------------------------|
A|-55555555----------22222222-------5x-|
E|----------22222222----------3~-------|



+++++++++++++++++++++++++++

Lyrics

Tell me tell me something I would know
Listen to the cure on the radio
Think about the day you made me feel again

Love me in a way you can't describe
Kill me in a way that I'll stay alive
Light me up so I can come back in

Don't wanna kiss like this
With everyday we miss
Don't wanna kiss like this
With everyday we miss

Meet me in the dark after the show
I'll take you to a place they'll never know
We'll think about the day your happiness was taken away
Gimme gimme magic cast a spell
These past few weeks I'm living hell
Let's give it a rest and come back when its time

Don't wanna kiss like this
With everyday we miss
Don't wanna kiss like this
With everyday we miss

Send me another letter
To be gathering dust with the rest
Emotions aside did we ever live up to the test
Why do we always end up coming back for more

Don't wanna kiss like this
With everyday we miss
Don't wanna kiss like this
With everyday we miss

++++++++++++++++++++++++++

+++++++++++++++++++++++++++++++++
| RaiLeff                       |
+++++++++++++++++++++++++++++++++
            
Hard to play? Try these video lessons and learn fast. | Correct




comments powered by Disqus
↑ Back to top | Tablatures and chords are parodies/interpretations of the original songs. You may use it for private study, scholarship, research or language learning purposes only