» » »

Useless Id, Its Allright Tabs (ver.1)

Artists:  A B C D E F G H I J K L M N O P Q R S T U V W X Y Z # 

Its Allright Tabs (ver.1)

Useless Id Tabs
 Rating:
4/5 (6 votes)
Its Allright lessons Tabs too difficult? Try these video lessons and learn fast
1
                ++++++++++++++++++++++++++++
| Useless ID- Its Allright |
++++++++++++++++++++++++++++

EADGBe

Intro: Guitar 1
1.
e|--------------------------|
B|--------------------------|
G|-----4-----4------4-----4-|
D|---4-----4------4-----4---|
A|-2-----2------2-----2-----|
E|--------------------------|

Verse: Guitar 1
"Tune in listen to..."
2.
e|----------------------------------------------------|
B|----------------------------------------------------|
G|-----4-----4------4-----4------4-----4------4-----4-|
D|---4-----4------4-----4------4-----4------4-----4---|
A|-2-----2--------------------------------------------|
E|--------------2-----2------4-----4------0-----0-----|

"Dont you realize..."
3.
e|----------------------------------------------------|
B|----------------------------------------------------|
G|-----4-----4------4-----4------4-----4--9~----------|
D|---4-----4------4-----4------4-----4----9~----------|
A|-2-----2--------------------------------7~----------|
E|--------------2-----2------4-----4------------------|

Verse: Guitar 2
"Dont you realize..."
4.
e|-7/10~--------8\7~---------7/10~--------7~----------|
B|----------------------------------------------------|
G|----------------------------------------------------|
D|----------------------------------------------------|
A|----------------------------------------------------|
E|----------------------------------------------------|

Chorus: Guitar 1
"But its allright..."
5.
e|----------------------------------------------------|
B|---7-----7------7-----7------4-----4------2-0---2-0-|
G|-4---6-4---6--3---6\3---6------4-----4--------------|
D|---------------------------6-----6------2-----2-----|
A|----------------------------------------------------|
E|----------------------------------------------------|

6.
e|----------------------------------------------------|
B|---7-----7------7-----7------4-----4----------------|
G|-4---6-4---6--3---6\3---6------4-----4--9~----------|
D|---------------------------6-----6------9~----------|
A|----------------------------------------7~----------|
E|----------------------------------------------------|

Chorus: Guitar 2
"But its alright..."
7.
e|--------------------------------------------------------------------|
B|--------------------------------------------------------------------|
G|-44444444----------------------------44444444-44444444--------------|
D|-44444444-44444444-66666666-22222222-44444444-44444444-66666666-2~--|
A|-22222222-44444444-66666666-22222222-22222222-11111111-44444444-2~--|
E|----------22222222-44444444-00000000-------------------44444444-0~--|

Outro: Guitar 1
8.
e|-----------------------------------------------------------|
B|-----------------------------------------------------------|
G|-4-4-4-4-6-6-6-6/9-9-9-9-8-8-8-8--4-4-4-4-6-6-6-6-3-3-3-4--|
D|-----------------------------------------------------------|
A|-----------------------------------------------------------|
E|-----------------------------------------------------------|

Outro: Guitar 2
9.
e|-----------------------------------------------|
B|-----------------------------------------------|
G|-44-44-4444-44-44-44-4444-44-44-44-4444-44-44x-|
D|-44-44-4444-44-44-44-4444-44-44-44-4444-44-44x-|
A|-22-22-2222-22-22-22-2222-22-22-22-2222-22-22x-|
E|-----------------------------------------------|

Verse: Guitar 1
"She will poison you again..."
10.
e|-------------------------------------------------------------|
B|-------------------------------------------------------------|
G|-4~----------------------------------------------------------|
D|-4~----------------------------------------------------------|
A|-2~----------------------------------------------------------|
E|-------------------------------------------------------------|

"You are not in love, my friend..."
11.
e|------------------------------------------------------|
B|------------------------------------------------------|
G|-4~---------------------------------------------------|
D|-4~---------------------------------6666-4444-2222-2x-|
A|-2~---------------------------------6666-4444-2222-2x-|
E|------------------------------------4444-2222-0000-0x-|

Chorus: Both Guitars
"But its allright..."
12.
e|--------------------------------------------------------------------------|
B|--------------------------------------------------------------------------|
G|-44444444----------------------------44444444-44444444--------------------|
D|-44444444-44444444-66666666-22222222-44444444-44444444-66666666-22222222--|
A|-22222222-44444444-66666666-22222222-22222222-11111111-44444444-22222222--|
E|----------22222222-44444444-00000000-------------------44444444-00000000--|

Bridge: Both Guitars
"When you say! HEY!"
13.
e|---------------------------------------------------------------------------------|
B|---------------------------------------------------------------------------------|
G|----------------4444----------------44------------------4444---------------------|
D|-6666-2222-4444-4444-6666-2222-4444-4424-6666-2222-4444-4444-6666-2222-4444-4444-|
A|-6666-2222-4444-2222-6666-2222-4444-2224-6666-2222-4444-2222-6666-2222-4444-4444-|
E|-4444-0000-2222------4444-0000-2222---02-4444-0000-2222------4444-0000-2222-2222-|

Outro: Guitar 1
14.
e|-----------------------------------------------------------|
B|-----------------------------------------------------------|
G|-4-4-4-4-6-6-6-6/9-9-9-9-8-8-8-8--4-4-4-4-6-6-6-6-3-3-3-4--|
D|-----------------------------------------------------------|
A|-----------------------------------------------------------|
E|-----------------------------------------------------------|

Outro: Guitar 2
15.
e|-----------------------------------------------|
B|-----------------------------------------------|
G|-44-44-4444-44-44-44-4444-44-44-44-4444-44-44x-|
D|-44-44-4444-44-44-44-4444-44-44-44-4444-44-44x-|
A|-22-22-2222-22-22-22-2222-22-22-22-2222-22-22x-|
E|-----------------------------------------------|

Verse: Both Guitars
"Tune in listen to..."
16.
e|-------------------------------|
B|---------------------------5~--|
G|-4~--------------------4~--4~--|
D|-4~----------------6~--4~--2~--|
A|-2~----------------6~--2~------|
E|-------------------4~----------|

"Dont you realize..."
17.
e|-------------------------------|
B|---------------------------5x--|
G|-44444444-44444444-----4x--4x--|
D|-44444444-44444444-6x--4x--2x--|
A|-22222222-22222222-6x--2x------|
E|-------------------4x----------|

Chorus: Both Guitars
"But its allright..."
18.
e|--------------------------------------------------------------------------|
B|--------------------------------------------------------------------------|
G|-44444444----------------------------44444444-44444444--------------------|
D|-44444444-44444444-66666666-22222222-44444444-44444444-66666666-22222222--|
A|-22222222-44444444-66666666-22222222-22222222-11111111-44444444-22222222--|
E|----------22222222-44444444-00000000-------------------44444444-00000000--|

Bridge: Both Guitars
"When you say! HEY!"
19.
e|--------------------------------------------------------------------------|
B|--------------------------------------------------------------------------|
G|----------------4444----------------44------------------4444--------------|
D|-6666-2222-4444-4444-6666-2222-4x---4424-6666-2222-4444-4444-6666-2222-4x-|
A|-6666-2222-4444-2222-6666-2222-4x---2224-6666-2222-4444-2222-6666-2222-4x-|
E|-4444-0000-2222------4444-0000-2x-----02-4444-0000-2222------4444-0000-2x-|

Guitar 1
"Save the best times..."
20.
e|---------------------------------------------------------------------------------|
B|-5-5-5x--------7~----9-9-9x--------7~----5-5-5x--------7~----9-9-9x------5-------|
G|-4-4-4x----3-6-------8-8-8x----4-6-------4-4-4x----3-6-------8-8-8x----4---4~----|
D|-2-2-2x--------------6-6-6x--------------2-2-2x--------------6-6-6x--------------|
A|---------------------------------------------------------------------------------|
E|---------------------------------------------------------------------------------|

Guitar 2
"Save the best times..."
21.
e|---------------------------------------------------------------------------------|
B|---------------------------------------------------------------------------------|
G|---------------------------------------------------------------------------------|
D|-2-2-2x---------------6-6-6x--------------2-2-2x--------------6-6-6x-------------|
A|-2-2-2x---------------6-6-6x--------------2-2-2x--------------6-6-6x-------------|
E|-0-0-0x---------------4-4-4x--------------0-0-0x--------------4-4-4x-------------|

Both Guitars
"Dissapointment..."
22.
e|-------------------------------------------------------|
B|-------------------------------------------------------|
G|----------44444444-------------------------------------|
D|-22222222-44444444-66666666-66666666-22222222-44444444-|
A|-22222222-11111111-66666666-66666666-22222222-44444444-|
E|-00000000----------44444444-33333333-00000000-22222222-|

Guitar 1
23.
e|---7-8----7-8----5-7----5-7---------------------------------------------------------------|
B|-4------5-----------------------------------------------------------4~--5~--7~----777-9~--|
G|---------------6------6-------------------------------------------------------------------|
D|----------------------------6666-2222-4444-4444-6666-2222-4444-4444-----------------------|
A|----------------------------6666-2222-4444-4444-6666-2222-4444-4444-----------------------|
E|----------------------------4444-0000-2222-2222-4444-0000-2222-2222-----------------------|

Guitar 2
24.
e|----------------------------------------------------------------------------------|
B|----------------------------------------------------------------------------------|
G|----------------------------------------------------------------------------------|
D|-6666-2222-4444-4444-6666-2222-4444-4444-6666-2222-4444-4444-6~--2~--4~----444-6~-|
A|-6666-2222-4444-4444-6666-2222-4444-4444-6666-2222-4444-4444-6~--2~--4~----444-6~-|
E|-4444-0000-2222-2222-4444-0000-2222-2222-4444-0000-2222-2222-4~--0~--2~----222-4~-|

Lyrics:

Tune in listen to
What I have to say to you
Why be sorry when youre not
Dont you realize
Theres no consollation prize
When you're betting all youve won

But its alright
I wont let you down
I wont let this fade away

She will poison you again
Just to get her sweet revenge
You believe its not what she is after
You are not in love my friend
Save it for someone who cares
Things will never be the same between us

When you say..HEY!
The writing is on the wall
Not so far away.. NO!
I wont share the past
With you in anyway
How come we pretend
Everythings ok
When we lost it all

Save the best times
Lose my trust along the way
Ill forget it
While you remember it that way
Dissapointment
Thats what happens when you
Trade me in for one mistake

+++++++++++++++++++++++++++++++++
| RaiLeff                       |
+++++++++++++++++++++++++++++++++
            
Submit corrections

comments powered by Disqus
↑ Back to top | Useless Id Tabs for Its Allright. Lyrics for acoustic guitar and electric guitar. 1 Tablatures and chords are parodies/interpretations of the original songs. You may use it for private study, scholarship, research or language learning purposes only