>
 >
Its Allright

Its Allright Bass Tabs

Useless Id - Its Allright chords, tabs, tablatures, lyrics

Guitar lessons | Add/correct | Request | Top 50 tabs Artists:  A B C D E F G H I J K L M N O P Q R S T U V W X Y Z 0-9

Its Allright Bass Tabs – Useless Id

CD, Sheet music, Poster

Do you like Its Allright? Share with your friends now
Bass TabsTabs
Here is a great song

It's Allright

"But it's allright.." 0:19
1.
G|---------------------------------------|
D|---------------------------------------|
A|-222222222-----------------------------|
E|----------222222222-444444444-000000000|

"But it's allright.."
2.
G|-----------------------------------|
D|-----------------------------------|
A|-222222222-------------------------|
E|----------222222222-444444444-0~---|

3.
G|-----------------------------------|
D|-----------------------------------|
A|-22-2-2-22-2-2-22-2-2-2------------|
E|-----------------------------------|

"She will poison you again.." x2
4.
G|-----------------------------------|
D|-----------------------------------|
A|-222222222222222222----22222-------|
E|-------------------0000-----4444222|

"But it's allright.." x2
5.
G|---------------------------------------|
D|---------------------------------------|
A|-222222222-----------------------------|
E|----------222222222-444444444-000000000|

"When you say.. HEY !" x3
6.
G|------------------------|
D|------------------------|
A|-----------------22222--|
E|-4444-00000-2222--------|

"When we lost it all.."
7.
G|-------------------------|
D|-------------------------|
A|-------------------------|
E|-4444-00000-222222222222-|

8.
G|-----------------------------------|
D|-----------------------------------|
A|-22-2-2-22-2-2-22-2-2-2------------|
E|-----------------------------------|

"Tune in listen to.."
9.
G|---------------------|
D|---------------------|
A|-2~----------2~------|
E|---------4~------0~--|

"Dont you realize.."
10.
G|----------------------------------|
D|----------------------------------|
A|-222222222222222222-----2x--------|
E|--------------------4x------0~----|

Chorus
"But it's allright..." x2
11.
G|---------------------------------------|
D|---------------------------------------|
A|-222222222-----------------------------|
E|----------222222222-444444444-000000000|

"When you say..Hey!" x3
12.
G|------------------------|
D|------------------------|
A|-----------------22222--|
E|-4444-00000-2222--------|

"When we lost it all..."
13.
G|---------------|
D|---------------|
A|---------------|
E|-4444-00000-2x-|

"Save the best times.." x2
14.
G|-----------------------------------|
D|-----------------------------------|
A|--------------------------222x-222x|
E|-000x--222x-222x----444x-----------|

"Dissapointment.."
15.
G|----------------------------------------|
D|----------------------------------------|
A|----------111111111---------------------|
E|-000000000----------444444444-333333333-|

16.
G|----------------------------------------|
D|----------------------------------------|
A|----------------------------------------|
E|-000000000-222222222-4444-00000-2222222-|

17.
G|----------------------------------------|
D|----------------------------------------|
A|----------------------------------------|
E|-4444-00000-222222222---4x--0x-2~-------|

I luv this song
and I hope this tab helps :D!
K plz rate and
here are lyrics ^^

__________

tune in listen to
what I have to say to you
why be sorry when youre not
dont you realize
theres no consollation prize
when you're betting all youve won


but its alright
I wont let you down
but its alright
I wont let you down
but its alright
I wont let this fade away

she will poison you again
just to get her sweet revenge
you believe its not what she is after
you are not in love my friend
save it for someone who cares
things will never be the same between us

when you say..HEY!
the writing is on the wall
not so far away.. NO!
i wont share the past
with you in anyway
how come we pretend
everythings ok
when we lost it all

save the best times
lose my trust along the way
ill forget it
while you remember it that way
dissapointment
thats what happens when you
trade me in for one mistake

_________________

RaiLeff





Comments


Popular Useless Id tabs & chords
Day By Day Bass Tabs
Deny It Bass Tabs
No Time To Be A Teenager Bass Tabs
Night Stalker Chords
Obsessive Compulsive Disorder Chords
State Of Fear Chords
Bring Me Down Tabs
No Time For Me To Be A Teenager 1 Tabs
Run Tabs
Its Alright Ukulele


Song lyrics



↑ Back to top | Tablatures and chords are parodies/interpretations of the original songs. You may use it for private study, scholarship, research or language learning purposes only
© 2014 AZChords.com Contact us | Privacy policy | DMCA | Add/correct tabs | Request tabs | Top 50 tabs