» » »

Useless Id, Bring Me Down Tabs (ver.1)

Artists:  A B C D E F G H I J K L M N O P Q R S T U V W X Y Z # 

Bring Me Down Tabs (ver.1)

Useless Id Tabs
 Rating:
4/5 (4 votes)
Bring Me Down lessons Tabs too difficult? Try these video lessons and learn fast
1
                intro: 
e|------------------(2x)-| 
B|-----------------------| 
G|----------------7------| 
D|--7-7-7-7-7-7-7-7------| 
A|--7-7-7-7-7-7-7-5------| 
E|--5-5-5-5-5-5-5--------| 
1st verse: "everyone gather round..." 
e|--------------------------------------|--------------------------------| 
B|--------------------------------------|-----------------------------6--| 
G|-----------6-6-6-6--7-7-7-7--------7--|-----------6-6-6-6--7-7-7-7--7--| 
D|--7-7-7-7--6-6-6-6--7-7-7-7--7-7-7-7--|--7-7-7-7--6-6-6-6--7-7-7-7--7--| 
A|--7-7-7-7--4-4-4-4--5-5-5-5--7-7-7-5--|--7-7-7-7--4-4-4-4--5-5-5-5--5--| 
E|--5-5-5-5--------------------5-5-5----|--5-5-5-5-----------------------| 
pre-chorus: "it's been a while..." 
e|---------------------------(2x)-| 
B|--------------------------------| 
G|--------9999--7777--1111--99----| 
D|--7777--9999--7777--1111--99----| 
A|--7777--7777--5555--9-9---77----| 
E|--5555--------------------------| 
chorus: "once again..." 
e|---------------(2x)-|--------------|-----------| 
B|--------------------|--------------|-----------| 
G|--7777--99--1111----|--7--9--6-----|--7777--9--| 
D|--7777--99--1111----|--7--9--6--4--|--7777--9--| 
A|--5555--77--9-9-----|--5--7--4--4--|--5555--7--| 
E|--------------------|-----------2--|-----------| 
between the 1st chorus and the 2nd verse: 
e|-------------------|-----------------| 
B|-------------------|-----------------| 
G|----------------7--|-----------------| 
D|--7-7-7-7-7-7-7-7--|--7-7-7-7-7-7-7--| 
A|--7-7-7-7-7-7-7-5--|--7-7-7-7-7-7-7--| 
E|--5-5-5-5-5-5-5----|--5-5-5-5-5-5-5--| 
2nd verse: 
e|--------------------------------------------------|----------| 
B|--------------------------------------------------|--5----6--| 
G|--------------------------------------------------|--6----7--| 
D|--[you know the part where guitar is not played]--|--6----7--| 
A|--------------------------------------------------|--4----5--| 
E|--------------------------------------------------|----------| 
then, back to verse, pre-chorus, & chorus 
keyboard solo: 
e|------------------------------------------------(2x)-| 
B|-----------------------------------------------------| 
G|--------9999--------6666--7777--------998/9/8/999----| 
D|--7777--9999--4444--6666--7777--7777--998/9/8/999----| 
A|--7777--7777--4444--4444--5555--7777--776/7/6/777----| 
E|--5555--------2222--------------5555-----------------| 
lastly play chorus again
            
Submit corrections

comments powered by Disqus
↑ Back to top | Useless Id Tabs for Bring Me Down. Lyrics for acoustic guitar and electric guitar. 1 Tablatures and chords are parodies/interpretations of the original songs. You may use it for private study, scholarship, research or language learning purposes only